  0
SECTION
  2
HEADER
  9
$ACADVER
  1
AC1015
  9
$ACADMAINTVER
 70
     6
  9
$DWGCODEPAGE
  3
ANSI_1254
  9
$INSBASE
 10
0.0
 20
0.0
 30
0.0
  9
$EXTMIN
 10
0.0
 20
0.0
 30
0.0
  9
$EXTMAX
 10
279.4
 20
215.9
 30
0.0
  9
$LIMMIN
 10
0.0
 20
0.0
  9
$LIMMAX
 10
279.4
 20
215.9
  9
$ORTHOMODE
 70
     0
  9
$REGENMODE
 70
     1
  9
$FILLMODE
 70
     1
  9
$QTEXTMODE
 70
     0
  9
$MIRRTEXT
 70
     1
  9
$LTSCALE
 40
1.0
  9
$ATTMODE
 70
     1
  9
$TEXTSIZE
 40
3.5
  9
$TRACEWID
 40
1.0
  9
$TEXTSTYLE
  7
Standard
  9
$CLAYER
  8
0
  9
$CELTYPE
  6
ByLayer
  9
$CECOLOR
 62
   256
  9
$CELTSCALE
 40
1.0
  9
$DISPSILH
 70
     0
  9
$DIMSCALE
 40
1.0
  9
$DIMASZ
 40
3.5
  9
$DIMEXO
 40
1.0
  9
$DIMDLI
 40
3.75
  9
$DIMRND
 40
0.0
  9
$DIMDLE
 40
0.0
  9
$DIMEXE
 40
1.0
  9
$DIMTP
 40
0.0
  9
$DIMTM
 40
0.0
  9
$DIMTXT
 40
3.5
  9
$DIMCEN
 40
2.5
  9
$DIMTSZ
 40
0.0
  9
$DIMTOL
 70
     0
  9
$DIMLIM
 70
     0
  9
$DIMTIH
 70
     1
  9
$DIMTOH
 70
     1
  9
$DIMSE1
 70
     0
  9
$DIMSE2
 70
     0
  9
$DIMTAD
 70
     1
  9
$DIMZIN
 70
     0
  9
$DIMBLK
  1

  9
$DIMASO
 70
     1
  9
$DIMSHO
 70
     1
  9
$DIMPOST
  1

  9
$DIMAPOST
  1

  9
$DIMALT
 70
     0
  9
$DIMALTD
 70
     3
  9
$DIMALTF
 40
0.0393700787
  9
$DIMLFAC
 40
1.0
  9
$DIMTOFL
 70
     1
  9
$DIMTVP
 40
0.0
  9
$DIMTIX
 70
     0
  9
$DIMSOXD
 70
     0
  9
$DIMSAH
 70
     0
  9
$DIMBLK1
  1

  9
$DIMBLK2
  1

  9
$DIMSTYLE
  2
ISO-25
  9
$DIMCLRD
 70
     0
  9
$DIMCLRE
 70
     0
  9
$DIMCLRT
 70
     0
  9
$DIMTFAC
 40
1.0
  9
$DIMGAP
 40
1.524
  9
$DIMJUST
 70
     0
  9
$DIMSD1
 70
     0
  9
$DIMSD2
 70
     0
  9
$DIMTOLJ
 70
     0
  9
$DIMTZIN
 70
     0
  9
$DIMALTZ
 70
     0
  9
$DIMALTTZ
 70
     0
  9
$DIMUPT
 70
     0
  9
$DIMDEC
 70
     2
  9
$DIMTDEC
 70
     2
  9
$DIMALTU
 70
     2
  9
$DIMALTTD
 70
     3
  9
$DIMTXSTY
  7
Standard
  9
$DIMAUNIT
 70
     0
  9
$DIMADEC
 70
     2
  9
$DIMALTRND
 40
0.0
  9
$DIMAZIN
 70
     0
  9
$DIMDSEP
 70
    44
  9
$DIMATFIT
 70
     3
  9
$DIMFRAC
 70
     0
  9
$DIMLDRBLK
  1

  9
$DIMLUNIT
 70
     2
  9
$DIMLWD
 70
    -2
  9
$DIMLWE
 70
    -2
  9
$DIMTMOVE
 70
     0
  9
$LUNITS
 70
     2
  9
$LUPREC
 70
     2
  9
$SKETCHINC
 40
1.0
  9
$FILLETRAD
 40
10.0
  9
$AUNITS
 70
     0
  9
$AUPREC
 70
     2
  9
$MENU
  1
.
  9
$ELEVATION
 40
0.0
  9
$PELEVATION
 40
0.0
  9
$THICKNESS
 40
0.0
  9
$LIMCHECK
 70
     0
  9
$CHAMFERA
 40
0.0
  9
$CHAMFERB
 40
0.0
  9
$CHAMFERC
 40
0.0
  9
$CHAMFERD
 40
0.0
  9
$SKPOLY
 70
     0
  9
$TDCREATE
 40
2458985.718033634
  9
$TDUCREATE
 40
2458985.593033634
  9
$TDUPDATE
 40
2458985.718033889
  9
$TDUUPDATE
 40
2458985.593033889
  9
$TDINDWG
 40
0.0000000116
  9
$TDUSRTIMER
 40
0.0000000116
  9
$USRTIMER
 70
     1
  9
$ANGBASE
 50
0.0
  9
$ANGDIR
 70
     0
  9
$PDMODE
 70
     0
  9
$PDSIZE
 40
-1.0
  9
$PLINEWID
 40
0.0
  9
$SPLFRAME
 70
     0
  9
$SPLINETYPE
 70
     6
  9
$SPLINESEGS
 70
     8
  9
$HANDSEED
  5
DD
  9
$SURFTAB1
 70
     6
  9
$SURFTAB2
 70
     6
  9
$SURFTYPE
 70
     6
  9
$SURFU
 70
     6
  9
$SURFV
 70
     6
  9
$UCSBASE
  2

  9
$UCSNAME
  2

  9
$UCSORG
 10
0.0
 20
0.0
 30
0.0
  9
$UCSXDIR
 10
1.0
 20
0.0
 30
0.0
  9
$UCSYDIR
 10
0.0
 20
1.0
 30
0.0
  9
$UCSORTHOREF
  2

  9
$UCSORTHOVIEW
 70
     0
  9
$UCSORGTOP
 10
0.0
 20
0.0
 30
0.0
  9
$UCSORGBOTTOM
 10
0.0
 20
0.0
 30
0.0
  9
$UCSORGLEFT
 10
0.0
 20
0.0
 30
0.0
  9
$UCSORGRIGHT
 10
0.0
 20
0.0
 30
0.0
  9
$UCSORGFRONT
 10
0.0
 20
0.0
 30
0.0
  9
$UCSORGBACK
 10
0.0
 20
0.0
 30
0.0
  9
$PUCSBASE
  2

  9
$PUCSNAME
  2

  9
$PUCSORG
 10
0.0
 20
0.0
 30
0.0
  9
$PUCSXDIR
 10
1.0
 20
0.0
 30
0.0
  9
$PUCSYDIR
 10
0.0
 20
1.0
 30
0.0
  9
$PUCSORTHOREF
  2

  9
$PUCSORTHOVIEW
 70
     0
  9
$PUCSORGTOP
 10
0.0
 20
0.0
 30
0.0
  9
$PUCSORGBOTTOM
 10
0.0
 20
0.0
 30
0.0
  9
$PUCSORGLEFT
 10
0.0
 20
0.0
 30
0.0
  9
$PUCSORGRIGHT
 10
0.0
 20
0.0
 30
0.0
  9
$PUCSORGFRONT
 10
0.0
 20
0.0
 30
0.0
  9
$PUCSORGBACK
 10
0.0
 20
0.0
 30
0.0
  9
$USERI1
 70
     0
  9
$USERI2
 70
     0
  9
$USERI3
 70
     0
  9
$USERI4
 70
     0
  9
$USERI5
 70
     0
  9
$USERR1
 40
0.0
  9
$USERR2
 40
0.0
  9
$USERR3
 40
0.0
  9
$USERR4
 40
0.0
  9
$USERR5
 40
0.0
  9
$WORLDVIEW
 70
     1
  9
$SHADEDGE
 70
     3
  9
$SHADEDIF
 70
    70
  9
$TILEMODE
 70
     1
  9
$MAXACTVP
 70
    64
  9
$PINSBASE
 10
0.0
 20
0.0
 30
0.0
  9
$PLIMCHECK
 70
     0
  9
$PEXTMIN
 10
1.0000000000E+20
 20
1.0000000000E+20
 30
1.0000000000E+20
  9
$PEXTMAX
 10
-1.0000000000E+20
 20
-1.0000000000E+20
 30
-1.0000000000E+20
  9
$PLIMMIN
 10
0.0
 20
0.0
  9
$PLIMMAX
 10
420.0
 20
297.0
  9
$UNITMODE
 70
     0
  9
$VISRETAIN
 70
     1
  9
$PLINEGEN
 70
     0
  9
$PSLTSCALE
 70
     1
  9
$TREEDEPTH
 70
  3020
  9
$CMLSTYLE
  2
Standard
  9
$CMLJUST
 70
     0
  9
$CMLSCALE
 40
20.0
  9
$PROXYGRAPHICS
 70
     1
  9
$MEASUREMENT
 70
     1
  9
$CELWEIGHT
370
    -1
  9
$ENDCAPS
280
     0
  9
$JOINSTYLE
280
     0
  9
$LWDISPLAY
290
     1
  9
$INSUNITS
 70
     4
  9
$HYPERLINKBASE
  1

  9
$STYLESHEET
  1

  9
$XEDIT
290
     1
  9
$CEPSNTYPE
380
     0
  9
$PSTYLEMODE
290
     1
  9
$FINGERPRINTGUID
  2
{9ef296cd-da69-4015-a99a-1cafb431d5b0}
  9
$VERSIONGUID
  2
{FAEB1C32-E019-11D5-929B-00C0DF256EC4}
  9
$EXTNAMES
290
     1
  9
$PSVPSCALE
 40
0.0
  9
$OLESTARTUP
290
     0
  0
ENDSEC
  0
SECTION
  2
CLASSES
  0
CLASS
  1
ACDBDICTIONARYWDFLT
  2
AcDbDictionaryWithDefault
  3
ObjectDBX Classes
 90
        0
280
     0
281
     0
  0
CLASS
  1
VISUALSTYLE
  2
AcDbVisualStyle
  3
ObjectDBX Classes
 90
     4095
280
     0
281
     0
  0
CLASS
  1
MATERIAL
  2
AcDbMaterial
  3
ObjectDBX Classes
 90
     1153
280
     0
281
     0
  0
CLASS
  1
SCALE
  2
AcDbScale
  3
ObjectDBX Classes
 90
     1153
280
     0
281
     0
  0
CLASS
  1
TABLESTYLE
  2
AcDbTableStyle
  3
ObjectDBX Classes
 90
     4095
280
     0
281
     0
  0
CLASS
  1
MLEADERSTYLE
  2
AcDbMLeaderStyle
  3
ACDB_MLEADERSTYLE_CLASS
 90
     4095
280
     0
281
     0
  0
CLASS
  1
SUN
  2
AcDbSun
  3
SCENEOE
 90
     1153
280
     0
281
     0
  0
CLASS
  1
ACDBPLACEHOLDER
  2
AcDbPlaceHolder
  3
ObjectDBX Classes
 90
        0
280
     0
281
     0
  0
CLASS
  1
LAYOUT
  2
AcDbLayout
  3
ObjectDBX Classes
 90
        0
280
     0
281
     0
  0
ENDSEC
  0
SECTION
  2
TABLES
  0
TABLE
  2
VPORT
  5
8
330
0
100
AcDbSymbolTable
 70
     1
  0
VPORT
  5
29
330
8
100
AcDbSymbolTableRecord
100
AcDbViewportTableRecord
  2
*Active
 70
     0
 10
0.0
 20
0.0
 11
1.0
 21
1.0
 12
139.7
 22
107.95
 13
0.0
 23
0.0
 14
10.0
 24
10.0
 15
10.0
 25
10.0
 16
0.0
 26
0.0
 36
1.0
 17
0.0
 27
0.0
 37
0.0
 40
215.9
 41
1.2941176471
 42
50.0
 43
0.0
 44
0.0
 50
0.0
 51
0.0
 71
     0
 72
  2000
 73
     1
 74
     3
 75
     0
 76
     0
 77
     0
 78
     0
281
     0
 65
     1
110
0.0
120
0.0
130
0.0
111
1.0
121
0.0
131
0.0
112
0.0
122
1.0
132
0.0
 79
     0
146
0.0
  0
ENDTAB
  0
TABLE
  2
LTYPE
  5
5
330
0
100
AcDbSymbolTable
 70
     6
  0
LTYPE
  5
14
330
5
100
AcDbSymbolTableRecord
100
AcDbLinetypeTableRecord
  2
ByBlock
 70
     0
  3

 72
    65
 73
     0
 40
0.0
  0
LTYPE
  5
15
330
5
100
AcDbSymbolTableRecord
100
AcDbLinetypeTableRecord
  2
ByLayer
 70
     0
  3

 72
    65
 73
     0
 40
0.0
  0
LTYPE
  5
16
330
5
100
AcDbSymbolTableRecord
100
AcDbLinetypeTableRecord
  2
Continuous
 70
     0
  3
Solid line
 72
    65
 73
     0
 40
0.0
  0
LTYPE
  5
6E
330
5
100
AcDbSymbolTableRecord
100
AcDbLinetypeTableRecord
  2
HIDDEN
 70
     0
  3
Hidden __ __ __ __ __ __ __ __ __ __ __ __ __ __
 72
    65
 73
     2
 40
1.905
 49
1.27
 74
     0
 49
-0.635
 74
     0
  0
LTYPE
  5
6F
330
5
100
AcDbSymbolTableRecord
100
AcDbLinetypeTableRecord
  2
PHANTOM
 70
     0
  3
Phantom ______  __  __  ______  __  __  ______
 72
    65
 73
     6
 40
12.7
 49
6.35
 74
     0
 49
-1.27
 74
     0
 49
1.27
 74
     0
 49
-1.27
 74
     0
 49
1.27
 74
     0
 49
-1.27
 74
     0
  0
LTYPE
  5
70
330
5
100
AcDbSymbolTableRecord
100
AcDbLinetypeTableRecord
  2
CENTER
 70
     0
  3
Center ____ _ ____ _ ____ _ ____ _ ____ _ ____
 72
    65
 73
     4
 40
10.16
 49
6.35
 74
     0
 49
-1.27
 74
     0
 49
1.27
 74
     0
 49
-1.27
 74
     0
  0
LTYPE
  5
71
330
5
100
AcDbSymbolTableRecord
100
AcDbLinetypeTableRecord
  2
CENTERX2
 70
     0
  3
Center (2x) ________  __  ________  __  _____
 72
    65
 73
     4
 40
20.32
 49
12.7
 74
     0
 49
-2.54
 74
     0
 49
2.54
 74
     0
 49
-2.54
 74
     0
  0
LTYPE
  5
72
330
5
100
AcDbSymbolTableRecord
100
AcDbLinetypeTableRecord
  2
DOT2
 70
     0
  3
Dot (.5x) ........................................
 72
    65
 73
     2
 40
0.635
 49
0.0
 74
     0
 49
-0.635
 74
     0
  0
ENDTAB
  0
TABLE
  2
LAYER
  5
2
330
0
100
AcDbSymbolTable
 70
    17
  0
LAYER
  5
10
330
2
100
AcDbSymbolTableRecord
100
AcDbLayerTableRecord
  2
0
 70
     0
 62
     7
  6
Continuous
370
    -3
390
F
  0
LAYER
  5
73
330
2
100
AcDbSymbolTableRecord
100
AcDbLayerTableRecord
  2
FORMAT
 70
     0
 62
     7
  6
Continuous
370
    -3
390
F
  0
LAYER
  5
74
330
2
100
AcDbSymbolTableRecord
100
AcDbLayerTableRecord
  2
YARDIMCI_GEOMETRI
 70
     0
 62
    -6
  6
Continuous
290
     0
370
    -3
390
F
  0
LAYER
  5
75
330
2
100
AcDbSymbolTableRecord
100
AcDbLayerTableRecord
  2
SAYFA_CERCEVESI
 70
     0
 62
     7
  6
Continuous
370
    25
390
F
  0
LAYER
  5
76
330
2
100
AcDbSymbolTableRecord
100
AcDbLayerTableRecord
  2
ANTET
 70
     0
 62
     7
  6
Continuous
370
    -3
390
F
  0
LAYER
  5
77
330
2
100
AcDbSymbolTableRecord
100
AcDbLayerTableRecord
  2
OLCU
 70
     0
 62
   150
  6
Continuous
370
    -3
390
F
  0
LAYER
  5
78
330
2
100
AcDbSymbolTableRecord
100
AcDbLayerTableRecord
  2
METIN
 70
     0
 62
    96
  6
Continuous
370
    -3
390
F
  0
LAYER
  5
79
330
2
100
AcDbSymbolTableRecord
100
AcDbLayerTableRecord
  2
BALON
 70
     0
 62
     5
  6
Continuous
370
    -3
390
F
  0
LAYER
  5
7A
330
2
100
AcDbSymbolTableRecord
100
AcDbLayerTableRecord
  2
VURGU
 70
     0
 62
     7
  6
Continuous
370
    -3
390
F
  0
LAYER
  5
7B
330
2
100
AcDbSymbolTableRecord
100
AcDbLayerTableRecord
  2
SILIK
 70
     0
 62
     7
  6
Continuous
370
    -3
390
F
  0
LAYER
  5
7C
330
2
100
AcDbSymbolTableRecord
100
AcDbLayerTableRecord
  2
MODEL
 70
     0
 62
     7
  6
Continuous
370
    -3
390
F
  0
LAYER
  5
7D
330
2
100
AcDbSymbolTableRecord
100
AcDbLayerTableRecord
  2
DETAYLANDıRMA
 70
     0
 62
   190
  6
Continuous
370
    -3
390
F
  0
LAYER
  5
7E
330
2
100
AcDbSymbolTableRecord
100
AcDbLayerTableRecord
  2
TOLERANS
 70
     0
 62
   230
  6
Continuous
370
    -3
390
F
  0
LAYER
  5
7F
330
2
100
AcDbSymbolTableRecord
100
AcDbLayerTableRecord
  2
MERKEZ_CIZGILERI
 70
     0
 62
    30
  6
Continuous
370
    -3
390
F
  0
LAYER
  5
80
330
2
100
AcDbSymbolTableRecord
100
AcDbLayerTableRecord
  2
KESIT-DETAY_CIZGILERI
 70
     0
 62
     7
  6
Continuous
370
    -3
390
F
  0
LAYER
  5
81
330
2
100
AcDbSymbolTableRecord
100
AcDbLayerTableRecord
  2
\U+041E\U+0421\U+0415\U+0412\U+042B\U+0415
 70
     0
 62
     7
  6
Continuous
370
    -3
390
F
  0
LAYER
  5
82
330
2
100
AcDbSymbolTableRecord
100
AcDbLayerTableRecord
  2
\U+0412\U+041E\U+0414\U+042F\U+041D\U+042B\U+0415_\U+0417\U+041D\U+0410\U+041A\U+0418
 70
     0
 62
    11
  6
Continuous
370
    -3
390
F
  0
ENDTAB
  0
TABLE
  2
STYLE
  5
3
330
0
100
AcDbSymbolTable
 70
     1
  0
STYLE
  5
11
330
3
100
AcDbSymbolTableRecord
100
AcDbTextStyleTableRecord
  2
Standard
 70
     0
 40
0.0
 41
1.0
 50
0.0
 71
     0
 42
3.5
  3
txt
  4

  0
ENDTAB
  0
TABLE
  2
VIEW
  5
6
330
0
100
AcDbSymbolTable
 70
     0
  0
ENDTAB
  0
TABLE
  2
UCS
  5
7
330
0
100
AcDbSymbolTable
 70
     0
  0
ENDTAB
  0
TABLE
  2
APPID
  5
9
330
0
100
AcDbSymbolTable
 70
     1
  0
APPID
  5
12
330
9
100
AcDbSymbolTableRecord
100
AcDbRegAppTableRecord
  2
ACAD
 70
     0
  0
ENDTAB
  0
TABLE
  2
DIMSTYLE
  5
A
330
0
100
AcDbSymbolTable
 70
     1
100
AcDbDimStyleTable
  0
DIMSTYLE
105
27
330
A
100
AcDbSymbolTableRecord
100
AcDbDimStyleTableRecord
  2
ISO-25
 70
     0
 41
2.5
 42
0.625
 43
3.75
 44
1.25
 73
     0
 74
     0
 77
     1
 78
     8
140
2.5
141
2.5
143
0.0393700787
147
0.625
171
     3
172
     1
178
     0
271
     2
272
     2
274
     3
278
    44
283
     0
284
     8
340
11
  0
ENDTAB
  0
TABLE
  2
BLOCK_RECORD
  5
1
330
0
100
AcDbSymbolTable
 70
     3
  0
BLOCK_RECORD
  5
1F
330
1
100
AcDbSymbolTableRecord
100
AcDbBlockTableRecord
  2
*Model_Space
340
22
  0
BLOCK_RECORD
  5
1B
330
1
100
AcDbSymbolTableRecord
100
AcDbBlockTableRecord
  2
*Paper_Space
340
1E
  0
BLOCK_RECORD
  5
23
330
1
100
AcDbSymbolTableRecord
100
AcDbBlockTableRecord
  2
*Paper_Space0
340
26
  0
BLOCK_RECORD
  5
AF
330
1
100
AcDbSymbolTableRecord
100
AcDbBlockTableRecord
  2
SW_CENTERMARKSYMBOL_0
340
0
102
{BLKREFS
331
BA
102
}
  0
BLOCK_RECORD
  5
C3
330
1
100
AcDbSymbolTableRecord
100
AcDbBlockTableRecord
  2
SW_CENTERMARKSYMBOL_1
340
0
102
{BLKREFS
331
CE
102
}
  0
ENDTAB
  0
ENDSEC
  0
SECTION
  2
BLOCKS
  0
BLOCK
  5
20
330
1F
100
AcDbEntity
  8
0
100
AcDbBlockBegin
  2
*Model_Space
 70
     0
 10
0.0
 20
0.0
 30
0.0
  3
*Model_Space
  1

  0
ENDBLK
  5
21
330
1F
100
AcDbEntity
  8
0
100
AcDbBlockEnd
  0
BLOCK
  5
1C
330
1B
100
AcDbEntity
 67
     1
  8
0
100
AcDbBlockBegin
  2
*Paper_Space
 70
     0
 10
0.0
 20
0.0
 30
0.0
  3
*Paper_Space
  1

  0
ENDBLK
  5
1D
330
1B
100
AcDbEntity
 67
     1
  8
0
100
AcDbBlockEnd
  0
BLOCK
  5
24
330
23
100
AcDbEntity
  8
0
100
AcDbBlockBegin
  2
*Paper_Space0
 70
     0
 10
0.0
 20
0.0
 30
0.0
  3
*Paper_Space0
  1

  0
ENDBLK
  5
25
330
23
100
AcDbEntity
  8
0
100
AcDbBlockEnd
  0
BLOCK
  5
B0
330
AF
100
AcDbEntity
  8
0
100
AcDbBlockBegin
  2
SW_CENTERMARKSYMBOL_0
 70
     0
 10
0.0
 20
0.0
 30
0.0
  3
SW_CENTERMARKSYMBOL_0
  1

  0
LINE
  5
B2
330
AF
100
AcDbEntity
  8
FORMAT
 62
     0
100
AcDbLine
 10
0.0
 20
0.0
 30
0.0
 11
0.0
 21
2.5
 31
0.0
  0
LINE
  5
B3
330
AF
100
AcDbEntity
  8
FORMAT
 62
     0
100
AcDbLine
 10
0.0
 20
0.0
 30
0.0
 11
-2.5
 21
0.0
 31
0.0
  0
LINE
  5
B4
330
AF
100
AcDbEntity
  8
FORMAT
 62
     0
100
AcDbLine
 10
0.0
 20
0.0
 30
0.0
 11
0.0
 21
-2.5
 31
0.0
  0
LINE
  5
B5
330
AF
100
AcDbEntity
  8
FORMAT
 62
     0
100
AcDbLine
 10
0.0
 20
0.0
 30
0.0
 11
2.5
 21
0.0
 31
0.0
  0
LINE
  5
B6
330
AF
100
AcDbEntity
  8
FORMAT
 62
     0
100
AcDbLine
 10
0.0
 20
5.0
 30
0.0
 11
0.0
 21
18.5
 31
0.0
  0
LINE
  5
B7
330
AF
100
AcDbEntity
  8
FORMAT
 62
     0
100
AcDbLine
 10
-5.0
 20
0.0
 30
0.0
 11
-18.5
 21
0.0
 31
0.0
  0
LINE
  5
B8
330
AF
100
AcDbEntity
  8
FORMAT
 62
     0
100
AcDbLine
 10
0.0
 20
-5.0
 30
0.0
 11
0.0
 21
-18.5
 31
0.0
  0
LINE
  5
B9
330
AF
100
AcDbEntity
  8
FORMAT
 62
     0
100
AcDbLine
 10
5.0
 20
0.0
 30
0.0
 11
18.5
 21
0.0
 31
0.0
  0
ENDBLK
  5
B1
330
AF
100
AcDbEntity
  8
0
100
AcDbBlockEnd
  0
BLOCK
  5
C4
330
C3
100
AcDbEntity
  8
0
100
AcDbBlockBegin
  2
SW_CENTERMARKSYMBOL_1
 70
     0
 10
0.0
 20
0.0
 30
0.0
  3
SW_CENTERMARKSYMBOL_1
  1

  0
LINE
  5
C6
330
C3
100
AcDbEntity
  8
FORMAT
 62
     0
100
AcDbLine
 10
0.0
 20
0.0
 30
0.0
 11
0.0
 21
2.5
 31
0.0
  0
LINE
  5
C7
330
C3
100
AcDbEntity
  8
FORMAT
 62
     0
100
AcDbLine
 10
0.0
 20
0.0
 30
0.0
 11
-2.5
 21
0.0
 31
0.0
  0
LINE
  5
C8
330
C3
100
AcDbEntity
  8
FORMAT
 62
     0
100
AcDbLine
 10
0.0
 20
0.0
 30
0.0
 11
0.0
 21
-2.5
 31
0.0
  0
LINE
  5
C9
330
C3
100
AcDbEntity
  8
FORMAT
 62
     0
100
AcDbLine
 10
0.0
 20
0.0
 30
0.0
 11
2.5
 21
0.0
 31
0.0
  0
LINE
  5
CA
330
C3
100
AcDbEntity
  8
FORMAT
 62
     0
100
AcDbLine
 10
0.0
 20
5.0
 30
0.0
 11
0.0
 21
18.5
 31
0.0
  0
LINE
  5
CB
330
C3
100
AcDbEntity
  8
FORMAT
 62
     0
100
AcDbLine
 10
-5.0
 20
0.0
 30
0.0
 11
-18.5
 21
0.0
 31
0.0
  0
LINE
  5
CC
330
C3
100
AcDbEntity
  8
FORMAT
 62
     0
100
AcDbLine
 10
0.0
 20
-5.0
 30
0.0
 11
0.0
 21
-18.5
 31
0.0
  0
LINE
  5
CD
330
C3
100
AcDbEntity
  8
FORMAT
 62
     0
100
AcDbLine
 10
5.0
 20
0.0
 30
0.0
 11
18.5
 21
0.0
 31
0.0
  0
ENDBLK
  5
C5
330
C3
100
AcDbEntity
  8
0
100
AcDbBlockEnd
  0
ENDSEC
  0
SECTION
  2
ENTITIES
  0
LINE
  5
83
330
1F
100
AcDbEntity
  8
0
  6
Continuous
 62
     7
370
    25
100
AcDbLine
 10
100.0933829858
 20
104.550713942
 30
0.0
 11
100.0933829858
 21
32.178128407
 31
0.0
  0
LINE
  5
84
330
1F
100
AcDbEntity
  8
0
  6
Continuous
 62
     7
370
    25
100
AcDbLine
 10
132.0933845058
 20
32.178128407
 30
0.0
 11
132.0933845058
 21
104.550713942
 31
0.0
  0
ARC
  5
85
330
1F
100
AcDbEntity
  8
0
  6
Continuous
 62
     7
370
    25
100
AcDbCircle
 10
132.0933837458
 20
104.550711409
 30
0.0
 40
32.0
100
AcDbArc
 50
135.0
 51
180.0
  0
LINE
  5
86
330
1F
100
AcDbEntity
  8
0
  6
Continuous
 62
     7
370
    25
100
AcDbLine
 10
161.7796734139
 20
179.4918424344
 30
0.0
 11
109.4659665763
 21
127.1781272149
 31
0.0
  0
LINE
  5
87
330
1F
100
AcDbEntity
  8
0
  6
Continuous
 62
     7
370
    25
100
AcDbLine
 10
132.0933845058
 20
104.550713942
 30
0.0
 11
184.4070941373
 21
156.864421711
 31
0.0
  0
LINE
  5
88
330
1F
100
AcDbEntity
  8
0
  6
Continuous
 62
     7
370
    25
100
AcDbLine
 10
116.0933837458
 20
32.178128407
 30
0.0
 11
132.0933845058
 21
32.178128407
 31
0.0
  0
LINE
  5
89
330
1F
100
AcDbEntity
  8
0
  6
Continuous
 62
     7
370
    25
100
AcDbLine
 10
100.0933829858
 20
32.178128407
 30
0.0
 11
116.0933837458
 21
32.178128407
 31
0.0
  0
LWPOLYLINE
  5
8A
330
1F
100
AcDbEntity
  8
0
  6
Continuous
 62
     7
370
    25
100
AcDbPolyline
 90
       20
 70
   128
 43
0.0
 10
173.0933837756
 20
168.178135798
 10
174.0659639403
 20
167.205551908
 10
175.0313431188
 20
166.2401652789
 10
175.9823762044
 20
165.289128468
 10
176.9120186731
 20
164.3594897246
 10
177.8133899137
 20
163.458118484
 10
178.6798179313
 20
162.5916904664
 10
179.5048803254
 20
161.7666280723
 10
180.2824825212
 20
160.9890258765
 10
181.0068503186
 20
160.2646655297
 10
181.6726342007
 20
159.5988816476
 10
182.2749018833
 20
158.9966065144
 10
182.8091904684
 20
158.4623253798
 10
183.271543698
 20
157.9999721503
 10
183.6585492059
 20
157.6129591918
 10
183.9673236176
 20
157.3041922307
 10
184.1956019565
 20
157.0759138918
 10
184.3416780397
 20
156.9298378086
 10
184.4044715329
 20
156.8670368647
 10
184.4070941373
 20
156.864421711
  0
LWPOLYLINE
  5
8B
330
1F
100
AcDbEntity
  8
0
  6
Continuous
 62
     7
370
    25
100
AcDbPolyline
 90
       20
 70
   128
 43
0.0
 10
161.7796734139
 20
179.4918424344
 10
161.7822960183
 20
179.48921983
 10
161.8450932368
 20
179.4264263368
 10
161.99116932
 20
179.2803502536
 10
162.2194402083
 20
179.0520644641
 10
162.5282220706
 20
178.743297503
 10
162.9152238532
 20
178.3562845445
 10
163.3775770828
 20
177.8939313149
 10
163.9118656679
 20
177.3596501803
 10
164.5141333505
 20
176.7573750472
 10
165.1799172326
 20
176.0915911651
 10
165.9042887553
 20
175.3672308183
 10
166.6818835005
 20
174.5896286225
 10
167.5069496199
 20
173.7645662284
 10
168.3733776375
 20
172.8981382108
 10
169.2747488781
 20
171.9967669701
 10
170.2043913468
 20
171.0671282267
 10
171.1554244324
 20
170.1160914159
 10
172.1208036109
 20
169.1507047868
 10
173.0933837756
 20
168.178135798
  0
LINE
  5
8C
330
1F
100
AcDbEntity
  8
0
  6
Continuous
 62
     1
370
    25
100
AcDbLine
 10
100.0933829858
 20
104.550713942
 30
0.0
 11
132.0933845058
 21
104.550713942
 31
0.0
  0
LWPOLYLINE
  5
8D
330
1F
100
AcDbEntity
  8
0
  6
Continuous
 62
     1
370
    25
100
AcDbPolyline
 90
       39
 70
   128
 43
0.0
 10
109.4659665763
 20
127.1781272149
 10
109.4764420926
 20
127.1676516986
 10
109.5601270139
 20
127.0839667773
 10
109.7268779925
 20
126.917215333
 10
109.9754596292
 20
126.6686341619
 10
110.3040320962
 20
126.3400635576
 10
110.7101627789
 20
125.9339324093
 10
111.1908444367
 20
125.4532507515
 10
111.742518486
 20
124.9015799618
 10
112.3611001461
 20
124.2829955077
 10
113.0420103367
 20
123.602086947
 10
113.780207343
 20
122.863890872
 10
114.5702260477
 20
122.0738685584
 10
115.4062172794
 20
121.2378761625
 10
116.2819917303
 20
120.3621051168
 10
117.1910654451
 20
119.4530299759
 10
118.1267079595
 20
118.5173860645
 10
119.0819922998
 20
117.5621024227
 10
120.0498455367
 20
116.5942496514
 10
121.0231023073
 20
115.6209952092
 10
121.9945565029
 20
114.6495363569
 10
122.9570164509
 20
113.687077806
 10
123.9033561363
 20
112.7407423115
 10
124.826568754
 20
111.8175259685
 10
125.7198197931
 20
110.9242758608
 10
126.576495932
 20
110.0676006532
 10
127.390254864
 20
109.2538407898
 10
128.1550700008
 20
108.4890237903
 10
128.8652816951
 20
107.7788120961
 10
129.5156298369
 20
107.128465817
 10
130.1013004198
 20
106.542798028
 10
130.6179562747
 20
106.0261375165
 10
131.061773391
 20
105.5823213315
 10
131.4294651314
 20
105.2146277285
 10
131.71830924
 20
104.9257836199
 10
131.9261692628
 20
104.7179273224
 10
132.0515029296
 20
104.5925936556
 10
132.0933845058
 20
104.550713942
 10
132.0933845058
 20
104.550713942
  0
LINE
  5
8E
330
1F
100
AcDbEntity
  8
0
  6
Continuous
 62
     7
370
    25
100
AcDbLine
 10
-26.4704725707
 20
168.178135798
 30
0.0
 11
-26.4704725707
 21
115.8644205785
 31
0.0
  0
LINE
  5
8F
330
1F
100
AcDbEntity
  8
0
  6
Continuous
 62
     7
370
    25
100
AcDbLine
 10
5.5295289492
 20
115.8644205785
 30
0.0
 11
5.5295289492
 21
168.178135798
 31
0.0
  0
LINE
  5
90
330
1F
100
AcDbEntity
  8
0
  6
Continuous
 62
     7
370
    25
100
AcDbLine
 10
-26.4704725707
 20
115.8644205785
 30
0.0
 11
-26.4704725707
 21
104.550713942
 31
0.0
  0
LINE
  5
91
330
1F
100
AcDbEntity
  8
0
  6
Continuous
 62
     7
370
    25
100
AcDbLine
 10
5.5295289492
 20
104.550713942
 30
0.0
 11
5.5295289492
 21
115.8644205785
 31
0.0
  0
LINE
  5
92
330
1F
100
AcDbEntity
  8
0
  6
Continuous
 62
     7
370
    25
100
AcDbLine
 10
-26.4704725707
 20
104.550713942
 30
0.0
 11
-26.4704725707
 21
32.178128407
 31
0.0
  0
LINE
  5
93
330
1F
100
AcDbEntity
  8
0
  6
Continuous
 62
     7
370
    25
100
AcDbLine
 10
5.5295289492
 20
32.178128407
 30
0.0
 11
5.5295289492
 21
104.550713942
 31
0.0
  0
LWPOLYLINE
  5
94
330
1F
100
AcDbEntity
  8
0
  6
Continuous
 62
     7
370
    25
100
AcDbPolyline
 90
       74
 70
   128
 43
0.0
 10
-26.4704725707
 20
168.178135798
 10
-26.4112423176
 20
167.205551908
 10
-26.2339930052
 20
166.2401652789
 10
-25.940036867
 20
165.289128468
 10
-25.5315485412
 20
164.3594897246
 10
-25.0115538949
 20
163.458118484
 10
-24.3839020843
 20
162.5916904664
 10
-23.6532394776
 20
161.7666280723
 10
-22.8249770591
 20
160.9890258765
 10
-21.9052457252
 20
160.2646655297
 10
-20.9008553067
 20
159.5988816476
 10
-19.8192424143
 20
158.9966065144
 10
-18.6684145594
 20
158.4623253798
 10
-17.456891481
 20
157.9999721503
 10
-16.1936436782
 20
157.6129591918
 10
-14.8880234921
 20
157.3041922307
 10
-13.5496971199
 20
157.0759138918
 10
-12.1885733681
 20
156.9298378086
 10
-10.8147293797
 20
156.8670368647
 10
-9.4383365942
 20
156.8879878974
 10
-8.0695855433
 20
156.9925195432
 10
-6.7186094822
 20
157.1798718429
 10
-5.3954110483
 20
157.4486440873
 10
-4.1097868236
 20
157.7968544221
 10
-2.8712544592
 20
158.2219249463
 10
-1.6889846885
 20
158.7207115149
 10
-0.5717291498
 20
159.28951864
 10
0.4722387528
 20
159.924129293
 10
1.4351909047
 20
160.6198496079
 10
2.3099980315
 20
161.3715237832
 10
3.0901827848
 20
162.1736085868
 10
3.7699691018
 20
163.020128653
 10
4.3443250468
 20
163.9048552966
 10
4.8089963382
 20
164.8212022042
 10
5.1605445331
 20
165.7624191499
 10
5.3963647222
 20
166.7215025878
 10
5.5147134697
 20
167.6913893676
 10
5.5147134697
 20
168.6648673272
 10
5.3963647222
 20
169.634754107
 10
5.1605445331
 20
170.5938375449
 10
4.8089963382
 20
171.5350544906
 10
4.3443250468
 20
172.4514013982
 10
3.7699691018
 20
173.3361280417
 10
3.0901827848
 20
174.182648108
 10
2.3099980315
 20
174.9847329116
 10
1.4351909047
 20
175.7364070868
 10
0.4722387528
 20
176.4321274018
 10
-0.5717291498
 20
177.0667380547
 10
-1.6889846885
 20
177.6355451798
 10
-2.8712544592
 20
178.1343317485
 10
-4.1097868236
 20
178.5594022727
 10
-5.3954110483
 20
178.9076126075
 10
-6.7186094822
 20
179.1763848519
 10
-8.0695855433
 20
179.3637371516
 10
-9.4383365942
 20
179.4682687974
 10
-10.8147293797
 20
179.48921983
 10
-12.1885733681
 20
179.4264263368
 10
-13.5496971199
 20
179.2803502536
 10
-14.8880234921
 20
179.0520644641
 10
-16.1936436782
 20
178.743297503
 10
-17.456891481
 20
178.3562845445
 10
-18.6684145594
 20
177.8939313149
 10
-19.8192424143
 20
177.3596501803
 10
-20.9008553067
 20
176.7573750472
 10
-21.9052457252
 20
176.0915911651
 10
-22.8249770591
 20
175.3672308183
 10
-23.6532394776
 20
174.5896286225
 10
-24.3839020843
 20
173.7645662284
 10
-25.0115538949
 20
172.8981382108
 10
-25.5315485412
 20
171.9967669701
 10
-25.940036867
 20
171.0671282267
 10
-26.2339930052
 20
170.1160914159
 10
-26.4112423176
 20
169.1507047868
 10
-26.4704725707
 20
168.178135798
  0
LWPOLYLINE
  5
95
330
1F
100
AcDbEntity
  8
0
  6
Continuous
 62
     7
370
    25
100
AcDbPolyline
 90
       66
 70
   128
 43
0.0
 10
-23.4704720789
 20
168.178135798
 10
-23.4097833747
 20
169.0653211331
 10
-23.2282835061
 20
169.9442363238
 10
-22.9276674801
 20
170.8066559291
 10
-22.5107423032
 20
171.6445333218
 10
-21.9813999722
 20
172.4500453925
 10
-21.3445839474
 20
173.2156670546
 10
-20.6062388608
 20
173.9342606521
 10
-19.7732583621
 20
174.5991206622
 10
-18.8534208575
 20
175.2040183997
 10
-17.8553136067
 20
175.7433212256
 10
-16.7882563548
 20
176.2119776463
 10
-15.6622114593
 20
176.6056365228
 10
-14.4876926208
 20
176.9206023669
 10
-13.2756663954
 20
177.1539545512
 10
-12.0374487016
 20
177.3034877038
 10
-10.7846005123
 20
177.3678309178
 10
-9.5288194136
 20
177.3463732457
 10
-8.2818302328
 20
177.2393084025
 10
-7.0552758409
 20
177.0476347661
 10
-5.8606080713
 20
176.7731553769
 10
-4.7089816073
 20
176.4184332347
 10
-3.6111488009
 20
175.9867614961
 10
-2.5773593226
 20
175.4821932769
 10
-1.6172653997
 20
174.9094224429
 10
-0.7398319432
 20
174.2738134122
 10
0.0467491334
 20
173.5812819457
 10
0.7351334205
 20
172.8382951474
 10
1.3188947922
 20
172.0518118596
 10
1.7925822174
 20
171.2291485524
 10
2.151771914
 20
170.3780091262
 10
2.3931111207
 20
169.5063209987
 10
2.5143469682
 20
168.6222500062
 10
2.5143469682
 20
167.7340066886
 10
2.3931111207
 20
166.8499356961
 10
2.151771914
 20
165.9782475686
 10
1.7925822174
 20
165.1271081424
 10
1.3188947922
 20
164.3044448352
 10
0.7351334205
 20
163.5179615474
 10
0.0467491334
 20
162.7749747491
 10
-0.7398319432
 20
162.0824432826
 10
-1.6172653997
 20
161.4468342519
 10
-2.5773593226
 20
160.8740634179
 10
-3.6111488009
 20
160.3694951987
 10
-4.7089816073
 20
159.9378234601
 10
-5.8606080713
 20
159.5831013179
 10
-7.0552758409
 20
159.3086219287
 10
-8.2818302328
 20
159.1169482922
 10
-9.5288194136
 20
159.0098834491
 10
-10.7846005123
 20
158.9884257769
 10
-12.0374487016
 20
159.052768991
 10
-13.2756663954
 20
159.2023021436
 10
-14.4876926208
 20
159.4356543279
 10
-15.6622114593
 20
159.750620172
 10
-16.7882563548
 20
160.1442790484
 10
-17.8553136067
 20
160.6129354691
 10
-18.8534208575
 20
161.1522382951
 10
-19.7732583621
 20
161.7571360326
 10
-20.6062388608
 20
162.4219960427
 10
-21.3445839474
 20
163.1405896401
 10
-21.9813999722
 20
163.9062113023
 10
-22.5107423032
 20
164.7117233729
 10
-22.9276674801
 20
165.5496007657
 10
-23.2282835061
 20
166.412020371
 10
-23.4097833747
 20
167.2909355616
 10
-23.4704720789
 20
168.178135798
  0
LINE
  5
96
330
1F
100
AcDbEntity
  8
0
  6
Continuous
 62
     7
370
    25
100
AcDbLine
 10
-26.4704725707
 20
32.178128407
 30
0.0
 11
5.5295289492
 21
32.178128407
 31
0.0
  0
LWPOLYLINE
  5
97
330
1F
100
AcDbEntity
  8
0
  6
Continuous
 62
     1
370
    25
100
AcDbPolyline
 90
       20
 70
   128
 43
0.0
 10
-10.4704718107
 20
104.550713942
 10
-9.0950350279
 20
104.5925936556
 10
-7.7297815589
 20
104.7179273224
 10
-6.3848192805
 20
104.9257836199
 10
-5.0701051952
 20
105.2146277285
 10
-3.795374185
 20
105.5823213315
 10
-2.5700633416
 20
106.0261375165
 10
-1.4032437468
 20
106.542798028
 10
-0.3035548145
 20
107.128465817
 10
0.7208618334
 20
107.7788120961
 10
1.6624215057
 20
108.4890237903
 10
2.5141532531
 20
109.2538407898
 10
3.2697510904
 20
110.0676006532
 10
3.9236224255
 20
110.9242758608
 10
4.4709234497
 20
111.8175259685
 10
4.9076047724
 20
112.7407423115
 10
5.2304309791
 20
113.687077806
 10
5.43701509
 20
114.6495363569
 10
5.525824148
 20
115.6209952092
 10
5.5295289492
 20
115.8644205785
  0
LWPOLYLINE
  5
98
330
1F
100
AcDbEntity
  8
0
  6
Continuous
 62
     1
370
    25
100
AcDbPolyline
 90
       20
 70
   128
 43
0.0
 10
-26.4704725707
 20
115.8644205785
 10
-26.4667677695
 20
115.6209952092
 10
-26.3779587114
 20
114.6495363569
 10
-26.1713746006
 20
113.687077806
 10
-25.8485483939
 20
112.7407423115
 10
-25.4118670711
 20
111.8175259685
 10
-24.8645660469
 20
110.9242758608
 10
-24.2106947118
 20
110.0676006532
 10
-23.4550968746
 20
109.2538407898
 10
-22.6033651272
 20
108.4890237903
 10
-21.6618054548
 20
107.7788120961
 10
-20.637388807
 20
107.128465817
 10
-19.5376998747
 20
106.542798028
 10
-18.3708802799
 20
106.0261375165
 10
-17.1455694364
 20
105.5823213315
 10
-15.8708384262
 20
105.2146277285
 10
-14.5561243409
 20
104.9257836199
 10
-13.2111620625
 20
104.7179273224
 10
-11.8459085936
 20
104.5925936556
 10
-10.4704718107
 20
104.550713942
  0
LINE
  5
99
330
1F
100
AcDbEntity
  8
0
  6
Continuous
 62
     1
370
    25
100
AcDbLine
 10
-10.4704718107
 20
104.550713942
 30
0.0
 11
5.5295289492
 21
104.550713942
 31
0.0
  0
LINE
  5
9A
330
1F
100
AcDbEntity
  8
0
  6
Continuous
 62
     1
370
    25
100
AcDbLine
 10
-26.4704725707
 20
104.550713942
 30
0.0
 11
-10.4704718107
 21
104.550713942
 31
0.0
  0
LINE
  5
9B
330
1F
100
AcDbEntity
  8
0
  6
Continuous
 62
     7
370
    25
100
AcDbLine
 10
239.4275723568
 20
104.550713942
 30
0.0
 11
239.4275723568
 21
32.178128407
 31
0.0
  0
LINE
  5
9C
330
1F
100
AcDbEntity
  8
0
  6
Continuous
 62
     7
370
    25
100
AcDbLine
 10
271.4275738767
 20
32.178128407
 30
0.0
 11
271.4275738767
 21
104.550713942
 31
0.0
  0
LINE
  5
9D
330
1F
100
AcDbEntity
  8
0
  6
Continuous
 62
     7
370
    25
100
AcDbLine
 10
271.4275738767
 20
104.550713942
 30
0.0
 11
271.4275738767
 21
115.8644205785
 31
0.0
  0
LINE
  5
9E
330
1F
100
AcDbEntity
  8
0
  6
Continuous
 62
     7
370
    25
100
AcDbLine
 10
239.4275723568
 20
115.8644205785
 30
0.0
 11
239.4275723568
 21
104.550713942
 31
0.0
  0
LINE
  5
9F
330
1F
100
AcDbEntity
  8
0
  6
Continuous
 62
     7
370
    25
100
AcDbLine
 10
239.4275723568
 20
168.178135798
 30
0.0
 11
239.4275723568
 21
115.8644205785
 31
0.0
  0
LINE
  5
A0
330
1F
100
AcDbEntity
  8
0
  6
Continuous
 62
     7
370
    25
100
AcDbLine
 10
271.4275738767
 20
115.8644205785
 30
0.0
 11
271.4275738767
 21
168.178135798
 31
0.0
  0
LINE
  5
A1
330
1F
100
AcDbEntity
  8
0
  6
Continuous
 62
     7
370
    25
100
AcDbLine
 10
239.4275723568
 20
32.178128407
 30
0.0
 11
271.4275738767
 21
32.178128407
 31
0.0
  0
LWPOLYLINE
  5
A2
330
1F
100
AcDbEntity
  8
0
  6
Continuous
 62
     7
370
    25
100
AcDbPolyline
 90
       39
 70
   128
 43
0.0
 10
239.4275723568
 20
168.178135798
 10
239.4423878363
 20
168.6648673272
 10
239.5607365838
 20
169.634754107
 10
239.7965567729
 20
170.5938375449
 10
240.1481049678
 20
171.5350544906
 10
240.6127762592
 20
172.4514013982
 10
241.1871322042
 20
173.3361280417
 10
241.8669185213
 20
174.182648108
 10
242.6471032745
 20
174.9847329116
 10
243.5219104013
 20
175.7364070868
 10
244.4848625532
 20
176.4321274018
 10
245.5288304559
 20
177.0667380547
 10
246.6460859946
 20
177.6355451798
 10
247.8283557652
 20
178.1343317485
 10
249.0668881296
 20
178.5594022727
 10
250.3525123543
 20
178.9076126075
 10
251.6757107883
 20
179.1763848519
 10
253.0266868493
 20
179.3637371516
 10
254.3954379002
 20
179.4682687974
 10
255.7718306857
 20
179.48921983
 10
257.1456746741
 20
179.4264263368
 10
258.5067984259
 20
179.2803502536
 10
259.8451247982
 20
179.0520644641
 10
261.1507449842
 20
178.743297503
 10
262.413992787
 20
178.3562845445
 10
263.6255158654
 20
177.8939313149
 10
264.7763437203
 20
177.3596501803
 10
265.8579566127
 20
176.7573750472
 10
266.8623470313
 20
176.0915911651
 10
267.7820783651
 20
175.3672308183
 10
268.6103407836
 20
174.5896286225
 10
269.3410033903
 20
173.7645662284
 10
269.9686552009
 20
172.8981382108
 10
270.4886498472
 20
171.9967669701
 10
270.897138173
 20
171.0671282267
 10
271.1910943112
 20
170.1160914159
 10
271.3683436236
 20
169.1507047868
 10
271.4275738767
 20
168.178135798
 10
271.4275738767
 20
168.178135798
  0
LINE
  5
A3
330
1F
100
AcDbEntity
  8
0
  6
Continuous
 62
     1
370
    25
100
AcDbLine
 10
239.4275723568
 20
104.550713942
 30
0.0
 11
271.4275738767
 21
104.550713942
 31
0.0
  0
LWPOLYLINE
  5
A4
330
1F
100
AcDbEntity
  8
0
  6
Continuous
 62
     1
370
    25
100
AcDbPolyline
 90
       38
 70
   128
 43
0.0
 10
239.4275723568
 20
115.8644205785
 10
239.4608988038
 20
116.5942496514
 10
239.6087313614
 20
117.5621024227
 10
239.8736823893
 20
118.5173860645
 10
240.2537877283
 20
119.4530299759
 10
240.7462347842
 20
120.3621051168
 10
241.347377429
 20
121.2378761625
 10
242.0527658037
 20
122.0738685584
 10
242.8571751884
 20
122.863890872
 10
243.7546525693
 20
123.602086947
 10
244.7385510972
 20
124.2829955077
 10
245.8015878296
 20
124.9015799618
 10
246.9358921594
 20
125.4532507515
 10
248.1330658852
 20
125.9339324093
 10
249.3842456101
 20
126.3400635576
 10
250.6801679342
 20
126.6686341619
 10
252.0112383722
 20
126.917215333
 10
253.3676023672
 20
127.0839667773
 10
254.7392174097
 20
127.1676516986
 10
256.1159288239
 20
127.1676516986
 10
257.4875438663
 20
127.0839667773
 10
258.8439078613
 20
126.917215333
 10
260.1749782993
 20
126.6686341619
 10
261.4709006234
 20
126.3400635576
 10
262.7220803483
 20
125.9339324093
 10
263.9192540741
 20
125.4532507515
 10
265.0535584039
 20
124.9015799618
 10
266.1165951363
 20
124.2829955077
 10
267.1004936642
 20
123.602086947
 10
267.9979710451
 20
122.863890872
 10
268.8023804298
 20
122.0738685584
 10
269.5077688045
 20
121.2378761625
 10
270.1089114493
 20
120.3621051168
 10
270.6013585052
 20
119.4530299759
 10
270.9814638442
 20
118.5173860645
 10
271.2464148721
 20
117.5621024227
 10
271.3942474297
 20
116.5942496514
 10
271.4275738767
 20
115.8644205785
  0
LINE
  5
A5
330
1F
100
AcDbEntity
  8
0
  6
Continuous
 62
     7
370
    25
100
AcDbLine
 10
173.0933837756
 20
282.4702541906
 30
0.0
 11
120.7796750754
 21
282.4702541906
 31
0.0
  0
LINE
  5
A6
330
1F
100
AcDbEntity
  8
0
  6
Continuous
 62
     7
370
    25
100
AcDbLine
 10
120.7796750754
 20
250.4702526706
 30
0.0
 11
173.0933837756
 21
250.4702526706
 31
0.0
  0
LINE
  5
A7
330
1F
100
AcDbEntity
  8
0
  6
Continuous
 62
     7
370
    25
100
AcDbLine
 10
120.7796750754
 20
282.4702541906
 30
0.0
 11
116.0933837458
 21
282.4702541906
 31
0.0
  0
LINE
  5
A8
330
1F
100
AcDbEntity
  8
0
  6
Continuous
 62
     7
370
    25
100
AcDbLine
 10
116.0933837458
 20
250.4702526706
 30
0.0
 11
120.7796750754
 21
250.4702526706
 31
0.0
  0
CIRCLE
  5
A9
330
1F
100
AcDbEntity
  8
0
  6
Continuous
 62
     7
370
    25
100
AcDbCircle
 10
116.0933837458
 20
266.4702534306
 30
0.0
 40
13.0
  0
CIRCLE
  5
AA
330
1F
100
AcDbEntity
  8
0
  6
Continuous
 62
     7
370
    25
100
AcDbCircle
 10
116.0933837458
 20
266.4702534306
 30
0.0
 40
16.0
  0
LWPOLYLINE
  5
AB
330
1F
100
AcDbEntity
  8
0
  6
Continuous
 62
     7
370
    25
100
AcDbPolyline
 90
       38
 70
   128
 43
0.0
 10
173.0933837756
 20
282.4702541906
 10
174.0659639403
 20
282.4110239375
 10
175.0313431188
 20
282.2337746251
 10
175.9823762044
 20
281.9398184869
 10
176.9120186731
 20
281.5313301611
 10
177.8133899137
 20
281.0113355148
 10
178.6798179313
 20
280.3836837041
 10
179.5048803254
 20
279.6530210975
 10
180.2824825212
 20
278.824758679
 10
181.0068503186
 20
277.9050273451
 10
181.6726342007
 20
276.9006369266
 10
182.2749018833
 20
275.8190240341
 10
182.8091904684
 20
274.6681961793
 10
183.271543698
 20
273.4566731009
 10
183.6585492059
 20
272.193425298
 10
183.9673236176
 20
270.887805112
 10
184.1956019565
 20
269.5494787398
 10
184.3416780397
 20
268.1883549879
 10
184.4044715329
 20
266.8145109995
 10
184.3835279509
 20
265.4381182141
 10
184.2789963051
 20
264.0693671632
 10
184.0916440054
 20
262.7183911021
 10
183.822871761
 20
261.3951926681
 10
183.4746539756
 20
260.1095684434
 10
183.0495834514
 20
258.8710360791
 10
182.5508043333
 20
257.6887663084
 10
181.9819972082
 20
256.5715107697
 10
181.3473865553
 20
255.5275428671
 10
180.6516662403
 20
254.5645907152
 10
179.8999846145
 20
253.6897835883
 10
179.0979072615
 20
252.9095988351
 10
178.2513797447
 20
252.2298125181
 10
177.3666605517
 20
251.6554565731
 10
176.4503061935
 20
251.1907852816
 10
175.5090966984
 20
250.8392370868
 10
174.5500020846
 20
250.6034168976
 10
173.5801264807
 20
250.4850681502
 10
173.0933837756
 20
250.4702526706
  0
LWPOLYLINE
  5
AC
330
1F
100
AcDbEntity
  8
0
  6
Continuous
 62
     1
370
    25
100
AcDbPolyline
 90
       20
 70
   128
 43
0.0
 10
132.0933845058
 20
266.4702534306
 10
132.0515029296
 20
265.0948166478
 10
131.9261692628
 20
263.7295631788
 10
131.71830924
 20
262.3846009004
 10
131.4294651314
 20
261.0698868151
 10
131.061773391
 20
259.7951558049
 10
130.6179562747
 20
258.5698449615
 10
130.1013004198
 20
257.4030253667
 10
129.5156298369
 20
256.3033364344
 10
128.8652816951
 20
255.2789197865
 10
128.1550700008
 20
254.3373601141
 10
127.390254864
 20
253.4856283668
 10
126.576495932
 20
252.7300305295
 10
125.7198197931
 20
252.0761591944
 10
124.826568754
 20
251.5288581702
 10
123.9033561363
 20
251.0921768474
 10
122.9570164509
 20
250.7693506408
 10
121.9945565029
 20
250.5627665299
 10
121.0231023073
 20
250.4739574718
 10
120.7796750754
 20
250.4702526706
  0
LWPOLYLINE
  5
AD
330
1F
100
AcDbEntity
  8
0
  6
Continuous
 62
     1
370
    25
100
AcDbPolyline
 90
       20
 70
   128
 43
0.0
 10
120.7796750754
 20
282.4702541906
 10
121.0231023073
 20
282.4665493894
 10
121.9945565029
 20
282.3777403313
 10
122.9570164509
 20
282.1711562204
 10
123.9033561363
 20
281.8483300137
 10
124.826568754
 20
281.411648691
 10
125.7198197931
 20
280.8643476668
 10
126.576495932
 20
280.2104763317
 10
127.390254864
 20
279.4548784944
 10
128.1550700008
 20
278.603146747
 10
128.8652816951
 20
277.6615870747
 10
129.5156298369
 20
276.6371704268
 10
130.1013004198
 20
275.5374814945
 10
130.6179562747
 20
274.3706618997
 10
131.061773391
 20
273.1453510563
 10
131.4294651314
 20
271.8706200461
 10
131.71830924
 20
270.5559059608
 10
131.9261692628
 20
269.2109436824
 10
132.0515029296
 20
267.8456902134
 10
132.0933845058
 20
266.4702534306
  0
LWPOLYLINE
  5
AE
330
1F
100
AcDbEntity
  8
0
  6
Continuous
 62
     1
370
    25
100
AcDbPolyline
 90
       30
 70
   128
 43
0.0
 10
118.8385497011
 20
279.177104086
 10
118.1511516846
 20
278.9274491
 10
117.3132731277
 20
278.510523923
 10
116.5077594563
 20
277.981181592
 10
115.742131566
 20
277.3443655673
 10
115.0235378812
 20
276.6060204807
 10
114.35868765
 20
275.773039982
 10
113.7537885155
 20
274.8532024774
 10
113.2144880179
 20
273.8550952266
 10
112.7458218183
 20
272.7880379747
 10
112.352165503
 20
271.6619930792
 10
112.0371945366
 20
270.4874742407
 10
111.8038498029
 20
269.2754480152
 10
111.654310131
 20
268.0372303215
 10
111.5899711079
 20
266.7843821322
 10
111.6114339023
 20
265.5286010334
 10
111.7184982798
 20
264.2816118526
 10
111.9101644657
 20
263.0550574607
 10
112.1846429236
 20
261.8603896911
 10
112.5393708866
 20
260.7087632272
 10
112.9710363388
 20
259.6109304207
 10
113.4756087489
 20
258.5771409425
 10
114.0483774874
 20
257.6170470196
 10
114.6839944344
 20
256.7396135631
 10
115.3765250277
 20
255.9530324864
 10
116.1195034914
 20
255.2646481994
 10
116.9059926691
 20
254.6808868277
 10
117.7286493988
 20
254.2071994024
 10
118.5797926668
 20
253.8480097058
 10
118.8385497011
 20
253.7634027752
  0
INSERT
  5
BA
330
1F
100
AcDbEntity
  8
FORMAT
 62
     7
100
AcDbBlockReference
  2
SW_CENTERMARKSYMBOL_0
 10
116.0933837458
 20
266.4702534306
 30
0.0
  0
LINE
  5
BB
330
1F
100
AcDbEntity
  8
0
  6
Continuous
 62
     7
370
    25
100
AcDbLine
 10
173.0933837756
 20
-38.8294776977
 30
0.0
 11
120.7796750754
 21
-38.8294776977
 31
0.0
  0
LINE
  5
BC
330
1F
100
AcDbEntity
  8
0
  6
Continuous
 62
     7
370
    25
100
AcDbLine
 10
120.7796750754
 20
-70.8294792176
 30
0.0
 11
173.0933837756
 21
-70.8294792176
 31
0.0
  0
LINE
  5
BD
330
1F
100
AcDbEntity
  8
0
  6
Continuous
 62
     7
370
    25
100
AcDbLine
 10
116.0933837458
 20
-70.8294792176
 30
0.0
 11
120.7796750754
 21
-70.8294792176
 31
0.0
  0
LINE
  5
BE
330
1F
100
AcDbEntity
  8
0
  6
Continuous
 62
     7
370
    25
100
AcDbLine
 10
120.7796750754
 20
-38.8294776977
 30
0.0
 11
116.0933837458
 21
-38.8294776977
 31
0.0
  0
LWPOLYLINE
  5
BF
330
1F
100
AcDbEntity
  8
0
  6
Continuous
 62
     7
370
    25
100
AcDbPolyline
 90
       74
 70
   128
 43
0.0
 10
173.0933837756
 20
-70.8294792176
 10
174.0659639403
 20
-70.7702489645
 10
175.0313431188
 20
-70.5929996521
 10
175.9823762044
 20
-70.2990435139
 10
176.9120186731
 20
-69.8905551881
 10
177.8133899137
 20
-69.3705605418
 10
178.6798179313
 20
-68.7429087311
 10
179.5048803254
 20
-68.0122461245
 10
180.2824825212
 20
-67.183983706
 10
181.0068503186
 20
-66.2642523721
 10
181.6726342007
 20
-65.2598619536
 10
182.2749018833
 20
-64.1782490612
 10
182.8091904684
 20
-63.0274212063
 10
183.271543698
 20
-61.8158981279
 10
183.6585492059
 20
-60.552650325
 10
183.9673236176
 20
-59.247030139
 10
184.1956019565
 20
-57.9087037668
 10
184.3416780397
 20
-56.547580015
 10
184.4044715329
 20
-55.1737360266
 10
184.3835279509
 20
-53.7973432411
 10
184.2789963051
 20
-52.4285921902
 10
184.0916440054
 20
-51.0776161291
 10
183.822871761
 20
-49.7544176951
 10
183.4746539756
 20
-48.4687934705
 10
183.0495834514
 20
-47.2302611061
 10
182.5508043333
 20
-46.0479913354
 10
181.9819972082
 20
-44.9307357967
 10
181.3473865553
 20
-43.8867678941
 10
180.6516662403
 20
-42.9238157422
 10
179.8999846145
 20
-42.0490086154
 10
179.0979072615
 20
-41.2688238621
 10
178.2513797447
 20
-40.5890375451
 10
177.3666605517
 20
-40.0146816001
 10
176.4503061935
 20
-39.5500103087
 10
175.5090966984
 20
-39.1984621138
 10
174.5500020846
 20
-38.9626419247
 10
173.5801264807
 20
-38.8442931772
 10
172.6066410705
 20
-38.8442931772
 10
171.6367654666
 20
-38.9626419247
 10
170.6776708528
 20
-39.1984621138
 10
169.7364613577
 20
-39.5500103087
 10
168.8201069995
 20
-40.0146816001
 10
167.9353878065
 20
-40.5890375451
 10
167.0888602897
 20
-41.2688238621
 10
166.2867829367
 20
-42.0490086154
 10
165.5351050361
 20
-42.9238157422
 10
164.8393809959
 20
-43.8867678941
 10
164.204770343
 20
-44.9307357967
 10
163.6359669432
 20
-46.0479913354
 10
163.1371803745
 20
-47.2302611061
 10
162.7121098503
 20
-48.4687934705
 10
162.3638957902
 20
-49.7544176951
 10
162.0951235458
 20
-51.0776161291
 10
161.9077749714
 20
-52.4285921902
 10
161.8032396003
 20
-53.7973432411
 10
161.7822960183
 20
-55.1737360266
 10
161.8450932368
 20
-56.547580015
 10
161.99116932
 20
-57.9087037668
 10
162.2194402083
 20
-59.247030139
 10
162.5282220706
 20
-60.552650325
 10
162.9152238532
 20
-61.8158981279
 10
163.3775770828
 20
-63.0274212063
 10
163.9118656679
 20
-64.1782490612
 10
164.5141333505
 20
-65.2598619536
 10
165.1799172326
 20
-66.2642523721
 10
165.9042887553
 20
-67.183983706
 10
166.6818835005
 20
-68.0122461245
 10
167.5069496199
 20
-68.7429087311
 10
168.3733776375
 20
-69.3705605418
 10
169.2747488781
 20
-69.8905551881
 10
170.2043913468
 20
-70.2990435139
 10
171.1554244324
 20
-70.5929996521
 10
172.1208036109
 20
-70.7702489645
 10
173.0933837756
 20
-70.8294792176
  0
LWPOLYLINE
  5
C0
330
1F
100
AcDbEntity
  8
0
  6
Continuous
 62
     7
370
    25
100
AcDbPolyline
 90
       66
 70
   128
 43
0.0
 10
173.0933837756
 20
-67.8294787258
 10
172.2061909899
 20
-67.7687900216
 10
171.3272795245
 20
-67.587290153
 10
170.4648599192
 20
-67.286674127
 10
169.6269825264
 20
-66.86974895
 10
168.8214667305
 20
-66.3404066191
 10
168.0558413431
 20
-65.7035905943
 10
167.3372477456
 20
-64.9652455077
 10
166.6723951861
 20
-64.132265009
 10
166.0674974486
 20
-63.2124275044
 10
165.5281983479
 20
-62.2143202536
 10
165.0595307514
 20
-61.1472630017
 10
164.6658756002
 20
-60.0212181062
 10
164.3509023055
 20
-58.8466992677
 10
164.1175575718
 20
-57.6346730423
 10
163.9680169686
 20
-56.3964553485
 10
163.9036812052
 20
-55.1436071592
 10
163.9251426026
 20
-53.8878260605
 10
164.0322074457
 20
-52.6408368797
 10
164.2238736316
 20
-51.4142824877
 10
164.4983530208
 20
-50.2196147182
 10
164.8530788883
 20
-49.0679882542
 10
165.2847431764
 20
-47.9701554478
 10
165.7893188461
 20
-46.9363659695
 10
166.3620859548
 20
-45.9762720466
 10
166.9977024361
 20
-45.0988385901
 10
167.6902339026
 20
-44.3122575134
 10
168.4332132503
 20
-43.6238732264
 10
169.2197002634
 20
-43.0401118547
 10
170.04235612
 20
-42.5664244295
 10
170.8935029968
 20
-42.2072347329
 10
171.7651836737
 20
-41.9658955262
 10
172.6492695674
 20
-41.8446596787
 10
173.5374979838
 20
-41.8446596787
 10
174.4215838775
 20
-41.9658955262
 10
175.2932645544
 20
-42.2072347329
 10
176.1444077059
 20
-42.5664244295
 10
176.9670672878
 20
-43.0401118547
 10
177.7535543009
 20
-43.6238732264
 10
178.4965336486
 20
-44.3122575134
 10
179.1890651151
 20
-45.0988385901
 10
179.8246815964
 20
-45.9762720466
 10
180.3974524304
 20
-46.9363659695
 10
180.9020206496
 20
-47.9701554478
 10
181.3336849376
 20
-49.0679882542
 10
181.6884145304
 20
-50.2196147182
 10
181.9628939196
 20
-51.4142824877
 10
182.1545601055
 20
-52.6408368797
 10
182.2616249486
 20
-53.8878260605
 10
182.2830900713
 20
-55.1436071592
 10
182.2187468573
 20
-56.3964553485
 10
182.0692062541
 20
-57.6346730423
 10
181.8358615204
 20
-58.8466992677
 10
181.5208956763
 20
-60.0212181062
 10
181.1272367998
 20
-61.1472630017
 10
180.6585729286
 20
-62.2143202536
 10
180.1192701026
 20
-63.2124275044
 10
179.5143723651
 20
-64.132265009
 10
178.8495198056
 20
-64.9652455077
 10
178.1309262081
 20
-65.7035905943
 10
177.3653008207
 20
-66.3404066191
 10
176.5597850248
 20
-66.86974895
 10
175.721907632
 20
-67.286674127
 10
174.8594880267
 20
-67.587290153
 10
173.9805765613
 20
-67.7687900216
 10
173.0933837756
 20
-67.8294787258
  0
ARC
  5
C1
330
1F
100
AcDbEntity
  8
0
  6
Continuous
 62
     7
370
    25
100
AcDbCircle
 10
116.0933837458
 20
-54.8294784576
 30
0.0
 40
16.00000000000001
100
AcDbArc
 50
90.0
 51
270.0
  0
LWPOLYLINE
  5
C2
330
1F
100
AcDbEntity
  8
0
  6
Continuous
 62
     1
370
    25
100
AcDbPolyline
 90
       38
 70
   128
 43
0.0
 10
120.7796750754
 20
-38.8294776977
 10
120.0498455367
 20
-38.8628041447
 10
119.0819922998
 20
-39.0106367022
 10
118.1267079595
 20
-39.2755877302
 10
117.1910654451
 20
-39.6556930691
 10
116.2819917303
 20
-40.148140125
 10
115.4062172794
 20
-40.7492827699
 10
114.5702260477
 20
-41.4546711445
 10
113.780207343
 20
-42.2590805293
 10
113.0420103367
 20
-43.1565579102
 10
112.3611001461
 20
-44.1404564381
 10
111.742518486
 20
-45.2034931705
 10
111.1908444367
 20
-46.3377975002
 10
110.7101627789
 20
-47.5349712261
 10
110.3040320962
 20
-48.786150951
 10
109.9754596292
 20
-50.082073275
 10
109.7268779925
 20
-51.4131437131
 10
109.5601270139
 20
-52.7695077081
 10
109.4764420926
 20
-54.1411227505
 10
109.4764420926
 20
-55.5178341647
 10
109.5601270139
 20
-56.8894492072
 10
109.7268779925
 20
-58.2458132022
 10
109.9754596292
 20
-59.5768836402
 10
110.3040320962
 20
-60.8728059642
 10
110.7101627789
 20
-62.1239856892
 10
111.1908444367
 20
-63.321159415
 10
111.742518486
 20
-64.4554637447
 10
112.3611001461
 20
-65.5185004771
 10
113.0420103367
 20
-66.502399005
 10
113.780207343
 20
-67.399876386
 10
114.5702260477
 20
-68.2042857707
 10
115.4062172794
 20
-68.9096741453
 10
116.2819917303
 20
-69.5108167902
 10
117.1910654451
 20
-70.0032638461
 10
118.1267079595
 20
-70.3833691851
 10
119.0819922998
 20
-70.648320213
 10
120.0498455367
 20
-70.7961527706
 10
120.7796750754
 20
-70.8294792176
  0
INSERT
  5
CE
330
1F
100
AcDbEntity
  8
FORMAT
 62
     7
100
AcDbBlockReference
  2
SW_CENTERMARKSYMBOL_1
 10
116.0933837458
 20
-54.8294784576
 30
0.0
  0
LINE
  5
CF
330
1F
100
AcDbEntity
  8
0
  6
Continuous
 62
     7
370
    25
100
AcDbLine
 10
246.0826680355
 20
-62.801314277
 30
0.0
 11
246.0826680355
 21
-121.8964840281
 31
0.0
  0
LINE
  5
D0
330
1F
100
AcDbEntity
  8
0
  6
Continuous
 62
     7
370
    25
100
AcDbLine
 10
278.0826680357
 20
-121.8964840281
 30
0.0
 11
278.0826680357
 21
-62.801314277
 31
0.0
  0
LINE
  5
D1
330
1F
100
AcDbEntity
  8
0
  6
Continuous
 62
     7
370
    25
100
AcDbLine
 10
288.5313485678
 20
20.4207033897
 30
0.0
 11
251.5399703969
 21
-43.6502481796
 31
0.0
  0
LINE
  5
D2
330
1F
100
AcDbEntity
  8
0
  6
Continuous
 62
     7
370
    25
100
AcDbLine
 10
279.2527824299
 20
-59.6502477139
 30
0.0
 11
316.244163235
 21
4.4206932087
 31
0.0
  0
SPLINE
  5
D3
330
1F
100
AcDbEntity
  8
0
  6
Continuous
 62
     7
370
    25
100
AcDbSpline
210
0.0
220
0.0
230
1.0
 70
     8
 71
     3
 72
    19
 73
    15
 74
     0
 42
0.000000001
 43
0.00000001
 40
0.0
 40
0.0
 40
0.0
 40
0.0
 40
0.0525491858299644
 40
0.1429937804951088
 40
0.2336671436559136
 40
0.3246866707282794
 40
0.4161725885856611
 40
0.508226482790361
 40
0.6009189970221627
 40
0.6942696246434199
 40
0.7882270069017795
 40
0.882647948014024
 40
0.9695162230738404
 40
1.0
 40
1.0
 40
1.0
 40
1.0
 10
251.5399703968627
 20
-43.65024817964146
 30
0.0
 10
251.3619126684684
 20
-43.96400948457512
 30
0.0
 10
250.8773923599739
 20
-44.81779845308009
 30
0.0
 10
250.1429236225021
 20
-46.24354533300964
 30
0.0
 10
249.3576847183004
 20
-47.93328359173581
 30
0.0
 10
248.6476688981589
 20
-49.65653907700046
 30
0.0
 10
248.0146197853587
 20
-51.40990819212904
 30
0.0
 10
247.4623440603509
 20
-53.19085376723183
 30
0.0
 10
246.9947669813064
 20
-54.99613041727097
 30
0.0
 10
246.6165696775199
 20
-56.82173117159012
 30
0.0
 10
246.3323791566504
 20
-58.66241977327237
 30
0.0
 10
246.1537442906203
 20
-60.46036480023636
 30
0.0
 10
246.0883409763882
 20
-61.84086796820743
 30
0.0
 10
246.0838377970186
 20
-62.60327005970306
 30
0.0
 10
246.0826680354931
 20
-62.80131427701227
 30
0.0
  0
SPLINE
  5
D4
330
1F
100
AcDbEntity
  8
0
  6
Continuous
 62
     7
370
    25
100
AcDbSpline
210
0.0
220
0.0
230
1.0
 70
     8
 71
     3
 72
    17
 73
    13
 74
     0
 42
0.000000001
 43
0.00000001
 40
0.0
 40
0.0
 40
0.0
 40
0.0
 40
0.1082600387850896
 40
0.2188142383633828
 40
0.3260946704320326
 40
0.4317576422793094
 40
0.5371112247300378
 40
0.6430768538179198
 40
0.7500060133294634
 40
0.8581392844842843
 40
0.9674332475893731
 40
1.0
 40
1.0
 40
1.0
 40
1.0
 10
278.0826937189813
 20
-62.81398911909511
 30
0.0
 10
278.0828662994202
 20
-62.80722412908374
 30
0.0
 10
278.0832151174858
 20
-62.79355079076346
 30
0.0
 10
278.097899031945
 20
-62.65338336192322
 30
0.0
 10
278.1360102981161
 20
-62.42909793556241
 30
0.0
 10
278.2055180228384
 20
-62.1227060693162
 30
0.0
 10
278.3125421355618
 20
-61.7462422393746
 30
0.0
 10
278.4614712706649
 20
-61.31092375132235
 30
0.0
 10
278.6534234061133
 20
-60.83047734584852
 30
0.0
 10
278.8896043909604
 20
-60.32236053405409
 30
0.0
 10
279.0938582910721
 20
-59.922086379917
 30
0.0
 10
279.2250646183546
 20
-59.70274923565457
 30
0.0
 10
279.2551854587844
 20
-59.65239633530665
 30
0.0
  0
LWPOLYLINE
  5
D5
330
1F
100
AcDbEntity
  8
0
  6
Continuous
 62
     7
370
    25
100
AcDbPolyline
 90
       74
 70
   128
 43
0.0
 10
250.7689589993
 20
-115.3652188233
 10
251.7834217891
 20
-114.8279379794
 10
252.8741359658
 20
-114.3429898643
 10
254.033026292
 20
-113.9139648951
 10
255.2515144022
 20
-113.5440398644
 10
256.5205770843
 20
-113.2359534196
 10
257.8308195423
 20
-112.9919865783
 10
259.1725420741
 20
-112.8139455267
 10
260.5358095481
 20
-112.7031481229
 10
261.9105297696
 20
-112.6604151532
 10
263.2865242747
 20
-112.6860629186
 10
264.6536053799
 20
-112.7799013344
 10
266.0016519146
 20
-112.9412358306
 10
267.320684954
 20
-113.168871534
 10
268.6009363073
 20
-113.4611239128
 10
269.832929519
 20
-113.8158282812
 10
271.0075417721
 20
-114.2303595675
 10
272.1160786328
 20
-114.7016473317
 10
273.1503305205
 20
-115.2262038022
 10
274.102641526
 20
-115.8001445957
 10
274.9659612719
 20
-116.4192201758
 10
275.7338969374
 20
-117.0788481676
 10
276.4007644601
 20
-117.7741436762
 10
276.9616254149
 20
-118.4999595846
 10
277.4123280078
 20
-119.250922385
 10
277.7495340768
 20
-120.021472096
 10
277.9707497137
 20
-120.8059035119
 10
278.074334155
 20
-121.598409351
 10
278.0595228305
 20
-122.3931216947
 10
277.9264244
 20
-123.1841574178
 10
277.6760240461
 20
-123.9656596265
 10
277.3101759008
 20
-124.7318423287
 10
276.8315892164
 20
-125.4770333934
 10
276.2438059743
 20
-126.1957148481
 10
275.5511791539
 20
-126.8825665986
 10
274.7588350301
 20
-127.5325026403
 10
273.8726419343
 20
-128.1407119025
 10
272.8991599576
 20
-128.7026910856
 10
271.845596458
 20
-129.2142794703
 10
270.7197522245
 20
-129.6716899967
 10
269.529961179
 20
-130.0715349492
 10
268.2850334946
 20
-130.4108549922
 10
266.9941848431
 20
-130.6871372043
 10
265.6669736688
 20
-130.8983368431
 10
264.3132254557
 20
-131.0428898905
 10
262.942962922
 20
-131.1197259789
 10
261.5663316043
 20
-131.1282763746
 10
260.193522479
 20
-131.0684783494
 10
258.8347001805
 20
-130.9407732805
 10
257.4999243054
 20
-130.7461083605
 10
256.1990776312
 20
-130.4859232918
 10
254.9417913712
 20
-130.1621451544
 10
253.737373723
 20
-129.7771707279
 10
252.5947407204
 20
-129.3338509046
 10
251.5223541666
 20
-128.8354670237
 10
250.5281518278
 20
-128.2857095821
 10
249.6194949145
 20
-127.6886486761
 10
248.8031121052
 20
-127.0487039681
 10
248.0850450519
 20
-126.3706147479
 10
247.4706124893
 20
-125.6594002054
 10
246.9643616671
 20
-124.9203268307
 10
246.5700423379
 20
-124.1588652653
 10
246.2905725123
 20
-123.3806545655
 10
246.1280219958
 20
-122.591455442
 10
246.0835939491
 20
-121.7971107223
 10
246.1576176445
 20
-121.0035016309
 10
246.349545173
 20
-120.2165040699
 10
246.657954737
 20
-119.4419441392
 10
247.0805634919
 20
-118.6855572684
 10
247.6142426928
 20
-117.9529429762
 10
248.2550410727
 20
-117.2495247628
 10
248.9982146415
 20
-116.5805116178
 10
249.8382604366
 20
-115.9508557262
 10
250.7689589993
 20
-115.3652188233
  0
LWPOLYLINE
  5
D6
330
1F
100
AcDbEntity
  8
0
  6
Continuous
 62
     7
370
    25
100
AcDbPolyline
 90
       66
 70
   128
 43
0.0
 10
252.8902796905
 20
-116.5898311917
 10
252.0459997011
 20
-117.1267704056
 10
251.2954294427
 20
-117.7082433579
 10
250.6455768991
 20
-118.3288206081
 10
250.1025089937
 20
-118.9827081332
 10
249.6712970134
 20
-119.6638008837
 10
249.3559658173
 20
-120.3657394768
 10
249.1594610752
 20
-121.0819701678
 10
249.0836171628
 20
-121.8058059626
 10
249.1291410275
 20
-122.5304883952
 10
249.2956088961
 20
-123.2492513962
 10
249.5814666034
 20
-123.9553834507
 10
249.9840437515
 20
-124.6422927969
 10
250.4995833439
 20
-125.3035648323
 10
251.1232705972
 20
-125.933025887
 10
251.8492830723
 20
-126.5247987757
 10
252.6708413829
 20
-127.0733586828
 10
253.5802759961
 20
-127.5735831314
 10
254.5690946924
 20
-128.0208023311
 10
255.6280657067
 20
-128.4108403322
 10
256.7473014461
 20
-128.740055751
 10
257.9163526201
 20
-129.0053740604
 10
259.1243030304
 20
-129.2043187403
 10
260.359874773
 20
-129.3350324719
 10
261.6115327823
 20
-129.3962941501
 10
262.8675885518
 20
-129.3875323802
 10
264.116316038
 20
-129.3088285182
 10
265.3460557104
 20
-129.1609174323
 10
266.5453265041
 20
-128.9451806588
 10
267.7029308575
 20
-128.6636321466
 10
268.8080597503
 20
-128.3189001985
 10
269.8503953541
 20
-127.9142039486
 10
270.8202061099
 20
-127.4533220456
 10
271.7084367835
 20
-126.9405573922
 10
272.5067941595
 20
-126.3806975599
 10
273.2078245841
 20
-125.7789700239
 10
273.8049825365
 20
-125.1409926938
 10
274.2926917087
 20
-124.4727219252
 10
274.6663992534
 20
-123.7803976325
 10
274.922616531
 20
-123.0704840306
 10
275.0589503906
 20
-122.349608997
 10
275.0741278659
 20
-121.6245034356
 10
274.9680080283
 20
-120.9019366471
 10
274.7415806701
 20
-120.1886562627
 10
274.3969610363
 20
-119.491321334
 10
273.9373664462
 20
-118.8164424565
 10
273.3670868233
 20
-118.1703214172
 10
272.6914479816
 20
-117.5589904632
 10
271.9167576662
 20
-116.9881575803
 10
271.0502496182
 20
-116.4631521532
 10
270.1000130279
 20
-115.9888766357
 10
269.0749212474
 20
-115.569758555
 10
267.9845445747
 20
-115.2097115675
 10
266.8390636964
 20
-114.9120968957
 10
265.6491728815
 20
-114.6796940549
 10
264.4259837513
 20
-114.5146719131
 10
263.180914809
 20
-114.4185720581
 10
261.9255919996
 20
-114.3922916904
 10
260.6717357687
 20
-114.4360754491
 10
259.4310533915
 20
-114.5495152221
 10
258.2151283365
 20
-114.7315520468
 10
257.0353132525
 20
-114.9804854244
 10
255.9026241074
 20
-115.2939918529
 10
254.8276363028
 20
-115.6691437411
 10
253.8203864686
 20
-116.1024387283
 10
252.8902796905
 20
-116.5898311917
  0
LWPOLYLINE
  5
D7
330
1F
100
AcDbEntity
  8
0
  6
Continuous
 62
     7
370
    25
100
AcDbPolyline
 90
       74
 70
   128
 43
0.0
 10
291.074045548
 20
18.9519688273
 10
291.8036456913
 20
18.5306475266
 10
292.6116060456
 20
18.0640877526
 10
293.4919463682
 20
17.5557488579
 10
294.4381477271
 20
17.0093981185
 10
295.4432051843
 20
16.4290711865
 10
296.4996791625
 20
15.8190667657
 10
297.5997428602
 20
15.1839040246
 10
298.7352606186
 20
14.528280388
 10
299.8978142633
 20
13.8570624144
 10
301.078805837
 20
13.1752021412
 10
302.2694892103
 20
12.4877492561
 10
303.4610464722
 20
11.7998130742
 10
304.6446557604
 20
11.1164686219
 10
305.8115610671
 20
10.4427710878
 10
306.9531104346
 20
9.7837337745
 10
308.0608672493
 20
9.1442090849
 10
309.1266184733
 20
8.5289446148
 10
310.1424745787
 20
7.9424889515
 10
311.100921902
 20
7.389197952
 10
311.9948600162
 20
6.8731523347
 10
312.8176662687
 20
6.3981812574
 10
313.5632581775
 20
5.9677958762
 10
314.2261046275
 20
5.5851828905
 10
314.8013090109
 20
5.2531808749
 10
315.2846098862
 20
4.97424949
 10
315.6724214786
 20
4.7504461039
 10
315.9618807658
 20
4.5834290271
 10
316.1508422099
 20
4.4744362295
 10
316.2379050866
 20
4.4242695652
 10
316.2224246808
 20
4.4333187326
 10
316.1045208477
 20
4.5014894172
 10
315.8850608904
 20
4.6283044398
 10
315.565672731
 20
4.8127988162
 10
315.148719227
 20
5.0536319328
 10
314.6372869767
 20
5.3489936329
 10
314.0351665621
 20
5.6967281775
 10
313.3468084272
 20
6.0942319682
 10
312.5773176088
 20
6.5385873903
 10
311.7323852488
 20
7.0264746057
 10
310.8182675198
 20
7.5543145203
 10
309.8417349179
 20
8.1181703084
 10
308.8100129936
 20
8.7138941836
 10
307.7307461315
 20
9.3370479317
 10
306.6119178665
 20
9.9830462604
 10
305.4618192742
 20
10.6470807513
 10
304.2889580909
 20
11.3242483812
 10
303.1020238115
 20
12.0095351686
 10
301.9098001026
 20
12.6978697879
 10
300.7211137655
 20
13.3841499928
 10
299.5447688818
 20
14.0632958462
 10
298.3894707513
 20
14.730278427
 10
297.2637774891
 20
15.3801629809
 10
296.1760177077
 20
16.0081412394
 10
295.1342468881
 20
16.6095535624
 10
294.146180867
 20
17.179960798
 10
293.2191308056
 20
17.7151301156
 10
292.3599623596
 20
18.2110981177
 10
291.5750345995
 20
18.6641848096
 10
290.870163461
 20
19.0710694485
 10
290.2505639582
 20
19.4286961472
 10
289.7208208778
 20
19.7344489637
 10
289.2848617793
 20
19.9860579778
 10
288.9459135309
 20
20.181642632
 10
288.7064825528
 20
20.319774844
 10
288.5683423056
 20
20.3994345127
 10
288.5325148501
 20
20.4200079919
 10
288.5992682142
 20
20.3813656506
 10
288.7681084893
 20
20.2837812594
 10
289.0377824653
 20
20.1279821747
 10
289.4062940938
 20
19.9151246181
 10
289.8709176591
 20
19.6467738991
 10
290.4282096319
 20
19.3249219016
 10
291.074045548
 20
18.9519688273
  0
LWPOLYLINE
  5
D8
330
1F
100
AcDbEntity
  8
0
  6
Continuous
 62
     7
370
    25
100
AcDbPolyline
 90
       66
 70
   128
 43
0.0
 10
293.1953662392
 20
17.7273564589
 10
292.6109395985
 20
18.064850424
 10
292.1177951292
 20
18.3496563399
 10
291.7205400085
 20
18.5791012827
 10
291.4228818422
 20
18.751046871
 10
291.2275977124
 20
18.8638858496
 10
291.1365157385
 20
18.9165649106
 10
291.1504821505
 20
18.90859763
 10
291.2693665563
 20
18.840061433
 10
291.4920626013
 20
18.7115820127
 10
291.8164889555
 20
18.5243692718
 10
292.2396143386
 20
18.2801572541
 10
292.7574920933
 20
17.9812480699
 10
293.3652825761
 20
17.630413806
 10
294.0573148955
 20
17.2309491002
 10
294.8271258488
 20
16.7865604566
 10
295.6675310446
 20
16.3014194849
 10
296.5706778749
 20
15.7800441115
 10
297.5281386573
 20
15.2272995595
 10
298.5309720451
 20
14.6483446496
 10
299.5698159636
 20
14.0485963973
 10
300.6349679121
 20
13.4336532356
 10
301.7164856794
 20
12.8092429526
 10
302.8042741075
 20
12.1812151862
 10
303.8881705375
 20
11.5554160478
 10
304.9580584088
 20
10.9377046638
 10
306.0039489182
 20
10.3338330256
 10
307.0160758507
 20
9.7494399072
 10
307.9849877755
 20
9.189997634
 10
308.9016409008
 20
8.6607097983
 10
309.7574780994
 20
8.1665386364
 10
310.5445020067
 20
7.7120776498
 10
311.2553718271
 20
7.3015960868
 10
311.8834441636
 20
6.9388876092
 10
312.4228606043
 20
6.6273839755
 10
312.8685793324
 20
6.3699542749
 10
313.2164429564
 20
6.1690269744
 10
313.4632035348
 20
6.0264629159
 10
313.6065522106
 20
5.9436081618
 10
313.6451567482
 20
5.9212175595
 10
313.578653631
 20
5.9595170928
 10
313.4076632081
 20
6.0581495002
 10
313.1337844254
 20
6.2161803494
 10
312.7595684843
 20
6.4321436576
 10
312.2885162076
 20
6.7040129831
 10
311.7250250261
 20
7.0292685291
 10
311.0743535823
 20
7.4048567348
 10
310.3425771141
 20
7.8272707801
 10
309.5365288849
 20
8.2925783106
 10
308.6637356881
 20
8.7964343336
 10
307.7323407147
 20
9.3341257452
 10
306.7510474123
 20
9.900628071
 10
305.7290158057
 20
10.4906714073
 10
304.6757910861
 20
11.098726892
 10
303.6011982436
 20
11.7191283741
 10
302.5152794234
 20
12.3460720733
 10
301.4281663327
 20
12.9737206678
 10
300.3500157035
 20
13.5962040478
 10
299.2908877909
 20
14.2077198869
 10
298.2606765677
 20
14.8025435243
 10
297.2690007349
 20
15.3751243536
 10
296.3251135014
 20
15.9201227053
 10
295.4378340953
 20
16.43244939
 10
294.6154437137
 20
16.9073196949
 10
293.8656196686
 20
17.3403035759
 10
293.1953662392
 20
17.7273564589
  0
LWPOLYLINE
  5
D9
330
1F
100
AcDbEntity
  8
0
  6
Continuous
 62
     1
370
    25
100
AcDbPolyline
 90
       11
 70
   128
 43
0.0
 10
273.396377072
 20
-56.2700490722
 10
274.3270756346
 20
-56.8556859752
 10
275.1671214298
 20
-57.4853418668
 10
275.9102949986
 20
-58.1543550117
 10
276.5510933784
 20
-58.8577732251
 10
277.0847725793
 20
-59.5903875173
 10
277.5073813343
 20
-60.3467743882
 10
277.8157908983
 20
-61.1213343188
 10
278.0077184267
 20
-61.9083318798
 10
278.0817421222
 20
-62.7019409713
 10
278.0826680357
 20
-62.801314277
  0
LWPOLYLINE
  5
DA
330
1F
100
AcDbEntity
  8
0
  6
Continuous
 62
     1
370
    25
100
AcDbPolyline
 90
       29
 70
   128
 43
0.0
 10
246.0826680355
 20
-62.801314277
 10
246.0910019162
 20
-62.5032395999
 10
246.1945863575
 20
-61.7107337608
 10
246.4158019945
 20
-60.926302345
 10
246.7530080634
 20
-60.1557526339
 10
247.2037106563
 20
-59.4047898336
 10
247.7645716111
 20
-58.6789739251
 10
248.4314391338
 20
-57.9836784166
 10
249.1993747993
 20
-57.3240504248
 10
250.0626945452
 20
-56.7049748447
 10
251.0150055508
 20
-56.1310340512
 10
252.0492574385
 20
-55.6064775806
 10
253.1577942991
 20
-55.1351898165
 10
254.3324065522
 20
-54.7206585301
 10
255.564399764
 20
-54.3659541618
 10
256.8446511172
 20
-54.0737017829
 10
258.1636841566
 20
-53.8460660795
 10
259.5117306913
 20
-53.6847315833
 10
260.8788117965
 20
-53.5908931675
 10
262.2548063016
 20
-53.5652454021
 10
263.6295265231
 20
-53.6079783719
 10
264.9927939971
 20
-53.7187757757
 10
266.3345165289
 20
-53.8968168273
 10
267.6447589869
 20
-54.1407836685
 10
268.913821669
 20
-54.4488701134
 10
270.1323097792
 20
-54.818795144
 10
271.2912001054
 20
-55.2478201132
 10
272.3819142821
 20
-55.7327682284
 10
273.396377072
 20
-56.2700490722
  0
LWPOLYLINE
  5
DB
330
1F
100
AcDbEntity
  8
0
  6
Continuous
 62
     1
370
    25
100
AcDbPolyline
 90
       13
 70
   128
 43
0.0
 10
273.396377072
 20
-56.2700490722
 10
274.3393430017
 20
-56.8144076796
 10
275.2160987019
 20
-57.3205313401
 10
276.0201514178
 20
-57.7846765516
 10
276.7455510349
 20
-58.2034025073
 10
277.3869246534
 20
-58.5736093025
 10
277.9395241673
 20
-58.8925600774
 10
278.3992593567
 20
-59.1578871905
 10
278.7627252172
 20
-59.3676361284
 10
279.0272315944
 20
-59.5202476294
 10
279.1908193186
 20
-59.6145905673
 10
279.2522786433
 20
-59.6499672683
 10
279.2527824299
 20
-59.6502477139
  0
LWPOLYLINE
  5
DC
330
1F
100
AcDbEntity
  8
0
  6
Continuous
 62
     1
370
    25
100
AcDbPolyline
 90
       27
 70
   128
 43
0.0
 10
251.5399703969
 20
-43.6502481796
 10
251.5482159503
 20
-43.6550519377
 10
251.6405661162
 20
-43.7084764403
 10
251.8347601285
 20
-43.8206956923
 10
252.1293596643
 20
-43.9908861829
 10
252.5221837683
 20
-44.2177840116
 10
253.0103231347
 20
-44.4997070656
 10
253.5901653178
 20
-44.8345708868
 10
254.2574161135
 20
-45.2198938221
 10
255.00713545
 20
-45.652830297
 10
255.8337744315
 20
-46.1301654011
 10
256.7312102403
 20
-46.6483662231
 10
257.6928004672
 20
-47.2036059974
 10
258.7114245998
 20
-47.7917629664
 10
259.779542962
 20
-48.4084874925
 10
260.8892457757
 20
-49.0492140372
 10
262.0323170396
 20
-49.7091980439
 10
263.2002957739
 20
-50.3835520603
 10
264.3845333136
 20
-51.0672826204
 10
265.5762624555
 20
-51.7553286474
 10
266.766659362
 20
-52.4426025165
 10
267.946911061
 20
-53.1240054536
 10
269.1082793255
 20
-53.7944993956
 10
270.2421661984
 20
-54.4491166839
 10
271.3401773776
 20
-55.0830095865
 10
272.3941816492
 20
-55.6914899328
 10
273.396377072
 20
-56.2700490722
  0
ENDSEC
  0
SECTION
  2
OBJECTS
  0
DICTIONARY
  5
C
330
0
100
AcDbDictionary
281
     1
  3
ACAD_GROUP
350
D
  3
ACAD_LAYOUT
350
1A
  3
ACAD_MLINESTYLE
350
17
  3
ACAD_PLOTSETTINGS
350
19
  3
ACAD_PLOTSTYLENAME
350
E
  3
ACAD_SCALELIST
350
47
  0
DICTIONARY
  5
D
102
{ACAD_REACTORS
330
C
102
}
330
C
100
AcDbDictionary
281
     1
  0
DICTIONARY
  5
1A
102
{ACAD_REACTORS
330
C
102
}
330
C
100
AcDbDictionary
281
     1
  3
Layout1
350
1E
  3
Layout2
350
26
  3
Model
350
22
  0
DICTIONARY
  5
17
102
{ACAD_REACTORS
330
C
102
}
330
C
100
AcDbDictionary
281
     1
  3
Standard
350
18
  0
DICTIONARY
  5
19
102
{ACAD_REACTORS
330
C
102
}
330
C
100
AcDbDictionary
281
     1
  0
ACDBDICTIONARYWDFLT
  5
E
102
{ACAD_REACTORS
330
C
102
}
330
C
100
AcDbDictionary
281
     1
  3
Normal
350
F
100
AcDbDictionaryWithDefault
340
F
  0
DICTIONARY
  5
47
102
{ACAD_REACTORS
330
C
102
}
330
C
100
AcDbDictionary
281
     1
  3
A0
350
48
  3
A1
350
49
  3
A2
350
4A
  3
A3
350
4B
  3
A4
350
4C
  3
A5
350
4D
  3
A6
350
4E
  3
A7
350
4F
  3
A8
350
50
  3
A9
350
51
  3
B0
350
52
  3
B1
350
53
  3
B2
350
54
  3
B3
350
55
  3
B4
350
56
  3
B5
350
57
  3
B6
350
58
  3
B7
350
59
  3
B8
350
5A
  3
B9
350
5B
  3
C0
350
5C
  3
C1
350
5D
  3
C2
350
5E
  3
C3
350
5F
  3
C4
350
60
  3
C5
350
61
  3
C6
350
62
  3
C7
350
63
  3
C8
350
64
  3
C9
350
65
  3
D0
350
66
  3
D1
350
67
  3
D2
350
68
  0
LAYOUT
  5
1E
102
{ACAD_REACTORS
330
1A
102
}
330
1A
100
AcDbPlotSettings
  1

  2
none_device
  4

  6

 40
0.0
 41
0.0
 42
0.0
 43
0.0
 44
0.0
 45
0.0
 46
0.0
 47
0.0
 48
0.0
 49
0.0
140
0.0
141
0.0
142
1.0
143
1.0
 70
   688
 72
     1
 73
     0
 74
     5
  7

 75
    16
147
1.0
148
0.0
149
0.0
100
AcDbLayout
  1
Layout1
 70
     1
 71
     1
 10
0.0
 20
0.0
 11
420.0
 21
297.0
 12
0.0
 22
0.0
 32
0.0
 14
1.0000000000E+20
 24
1.0000000000E+20
 34
1.0000000000E+20
 15
-1.0000000000E+20
 25
-1.0000000000E+20
 35
-1.0000000000E+20
146
0.0
 13
0.0
 23
0.0
 33
0.0
 16
1.0
 26
0.0
 36
0.0
 17
0.0
 27
1.0
 37
0.0
 76
     0
330
1B
  0
LAYOUT
  5
26
102
{ACAD_REACTORS
330
1A
102
}
330
1A
100
AcDbPlotSettings
  1

  2
none_device
  4

  6

 40
0.0
 41
0.0
 42
0.0
 43
0.0
 44
0.0
 45
0.0
 46
0.0
 47
0.0
 48
0.0
 49
0.0
140
0.0
141
0.0
142
1.0
143
1.0
 70
   688
 72
     1
 73
     0
 74
     5
  7

 75
    16
147
1.0
148
0.0
149
0.0
100
AcDbLayout
  1
Layout2
 70
     1
 71
     2
 10
0.0
 20
0.0
 11
0.0
 21
0.0
 12
0.0
 22
0.0
 32
0.0
 14
0.0
 24
0.0
 34
0.0
 15
0.0
 25
0.0
 35
0.0
146
0.0
 13
0.0
 23
0.0
 33
0.0
 16
1.0
 26
0.0
 36
0.0
 17
0.0
 27
1.0
 37
0.0
 76
     0
330
23
  0
LAYOUT
  5
22
102
{ACAD_REACTORS
330
1A
102
}
330
1A
100
AcDbPlotSettings
  1

  2
none_device
  4
Letter_(8.50_x_11.00_Inches)
  6

 40
6.35
 41
6.35
 42
6.35000508
 43
6.35000508
 44
215.9
 45
279.4
 46
0.0
 47
0.0
 48
0.0
 49
0.0
140
0.0
141
0.0
142
1.0
143
1.0
 70
  1712
 72
     1
 73
     0
 74
     0
  7

 75
     0
147
1.0
148
0.0
149
0.0
100
AcDbLayout
  1
Model
 70
     1
 71
     0
 10
0.0
 20
0.0
 11
279.4
 21
215.9
 12
0.0
 22
0.0
 32
0.0
 14
0.0
 24
0.0
 34
0.0
 15
279.4
 25
215.9
 35
0.0
146
0.0
 13
0.0
 23
0.0
 33
0.0
 16
1.0
 26
0.0
 36
0.0
 17
0.0
 27
1.0
 37
0.0
 76
     0
330
1F
331
29
  0
MLINESTYLE
  5
18
102
{ACAD_REACTORS
330
17
102
}
330
17
100
AcDbMlineStyle
  2
Standard
 70
     0
  3

 62
   256
 51
90.0
 52
90.0
 71
     2
 49
0.5
 62
   256
  6
BYLAYER
 49
-0.5
 62
   256
  6
BYLAYER
  0
ACDBPLACEHOLDER
  5
F
102
{ACAD_REACTORS
330
E
102
}
330
E
  0
SCALE
  5
48
102
{ACAD_REACTORS
330
47
102
}
330
47
100
AcDbScale
 70
     0
300
1:1
140
1.0
141
1.0
290
     1
  0
SCALE
  5
49
102
{ACAD_REACTORS
330
47
102
}
330
47
100
AcDbScale
 70
     0
300
1:2
140
1.0
141
2.0
290
     0
  0
SCALE
  5
4A
102
{ACAD_REACTORS
330
47
102
}
330
47
100
AcDbScale
 70
     0
300
1:4
140
1.0
141
4.0
290
     0
  0
SCALE
  5
4B
102
{ACAD_REACTORS
330
47
102
}
330
47
100
AcDbScale
 70
     0
300
1:5
140
1.0
141
5.0
290
     0
  0
SCALE
  5
4C
102
{ACAD_REACTORS
330
47
102
}
330
47
100
AcDbScale
 70
     0
300
1:8
140
1.0
141
8.0
290
     0
  0
SCALE
  5
4D
102
{ACAD_REACTORS
330
47
102
}
330
47
100
AcDbScale
 70
     0
300
1:10
140
1.0
141
10.0
290
     0
  0
SCALE
  5
4E
102
{ACAD_REACTORS
330
47
102
}
330
47
100
AcDbScale
 70
     0
300
1:16
140
1.0
141
16.0
290
     0
  0
SCALE
  5
4F
102
{ACAD_REACTORS
330
47
102
}
330
47
100
AcDbScale
 70
     0
300
1:20
140
1.0
141
20.0
290
     0
  0
SCALE
  5
50
102
{ACAD_REACTORS
330
47
102
}
330
47
100
AcDbScale
 70
     0
300
1:30
140
1.0
141
30.0
290
     0
  0
SCALE
  5
51
102
{ACAD_REACTORS
330
47
102
}
330
47
100
AcDbScale
 70
     0
300
1:40
140
1.0
141
40.0
290
     0
  0
SCALE
  5
52
102
{ACAD_REACTORS
330
47
102
}
330
47
100
AcDbScale
 70
     0
300
1:50
140
1.0
141
50.0
290
     0
  0
SCALE
  5
53
102
{ACAD_REACTORS
330
47
102
}
330
47
100
AcDbScale
 70
     0
300
1:100
140
1.0
141
100.0
290
     0
  0
SCALE
  5
54
102
{ACAD_REACTORS
330
47
102
}
330
47
100
AcDbScale
 70
     0
300
2:1
140
2.0
141
1.0
290
     0
  0
SCALE
  5
55
102
{ACAD_REACTORS
330
47
102
}
330
47
100
AcDbScale
 70
     0
300
4:1
140
4.0
141
1.0
290
     0
  0
SCALE
  5
56
102
{ACAD_REACTORS
330
47
102
}
330
47
100
AcDbScale
 70
     0
300
8:1
140
8.0
141
1.0
290
     0
  0
SCALE
  5
57
102
{ACAD_REACTORS
330
47
102
}
330
47
100
AcDbScale
 70
     0
300
10:1
140
10.0
141
1.0
290
     0
  0
SCALE
  5
58
102
{ACAD_REACTORS
330
47
102
}
330
47
100
AcDbScale
 70
     0
300
100:1
140
100.0
141
1.0
290
     0
  0
SCALE
  5
59
102
{ACAD_REACTORS
330
47
102
}
330
47
100
AcDbScale
 70
     0
300
1/128" = 1'-0"
140
0.0078125
141
12.0
290
     0
  0
SCALE
  5
5A
102
{ACAD_REACTORS
330
47
102
}
330
47
100
AcDbScale
 70
     0
300
1/64" = 1'-0"
140
0.015625
141
12.0
290
     0
  0
SCALE
  5
5B
102
{ACAD_REACTORS
330
47
102
}
330
47
100
AcDbScale
 70
     0
300
1/32" = 1'-0"
140
0.03125
141
12.0
290
     0
  0
SCALE
  5
5C
102
{ACAD_REACTORS
330
47
102
}
330
47
100
AcDbScale
 70
     0
300
1/16" = 1'-0"
140
0.0625
141
12.0
290
     0
  0
SCALE
  5
5D
102
{ACAD_REACTORS
330
47
102
}
330
47
100
AcDbScale
 70
     0
300
3/32" = 1'-0"
140
0.09375
141
12.0
290
     0
  0
SCALE
  5
5E
102
{ACAD_REACTORS
330
47
102
}
330
47
100
AcDbScale
 70
     0
300
1/8" = 1'-0"
140
0.125
141
12.0
290
     0
  0
SCALE
  5
5F
102
{ACAD_REACTORS
330
47
102
}
330
47
100
AcDbScale
 70
     0
300
3/16" = 1'-0"
140
0.1875
141
12.0
290
     0
  0
SCALE
  5
60
102
{ACAD_REACTORS
330
47
102
}
330
47
100
AcDbScale
 70
     0
300
1/4" = 1'-0"
140
0.25
141
12.0
290
     0
  0
SCALE
  5
61
102
{ACAD_REACTORS
330
47
102
}
330
47
100
AcDbScale
 70
     0
300
3/8" = 1'-0"
140
0.375
141
12.0
290
     0
  0
SCALE
  5
62
102
{ACAD_REACTORS
330
47
102
}
330
47
100
AcDbScale
 70
     0
300
1/2" = 1'-0"
140
0.5
141
12.0
290
     0
  0
SCALE
  5
63
102
{ACAD_REACTORS
330
47
102
}
330
47
100
AcDbScale
 70
     0
300
3/4" = 1'-0"
140
0.75
141
12.0
290
     0
  0
SCALE
  5
64
102
{ACAD_REACTORS
330
47
102
}
330
47
100
AcDbScale
 70
     0
300
1" = 1'-0"
140
1.0
141
12.0
290
     0
  0
SCALE
  5
65
102
{ACAD_REACTORS
330
47
102
}
330
47
100
AcDbScale
 70
     0
300
1-1/2" = 1'-0"
140
1.5
141
12.0
290
     0
  0
SCALE
  5
66
102
{ACAD_REACTORS
330
47
102
}
330
47
100
AcDbScale
 70
     0
300
3" = 1'-0"
140
3.0
141
12.0
290
     0
  0
SCALE
  5
67
102
{ACAD_REACTORS
330
47
102
}
330
47
100
AcDbScale
 70
     0
300
6" = 1'-0"
140
6.0
141
12.0
290
     0
  0
SCALE
  5
68
102
{ACAD_REACTORS
330
47
102
}
330
47
100
AcDbScale
 70
     0
300
1'-0" = 1'-0"
140
12.0
141
12.0
290
     0
  0
ENDSEC
  0
EOF
